Oops, an error
Loading. Please wait.

Babozoo Bass

by Gula
12 views 3 this week
no commentswrite comment
1 2 3 4 5
3 more votes to show rating
add to favorites
launch autoscroll
font size
0
reset
guitar tuner
×
Best way to learn
"Babozoo"
Autoscroll
slow
fast
+/-
esc
set tempo
stop
ESTA EXCELENTE ROLA DE ESTA EXCELENTE BANDA,
TODA LA ROLA ES PALM MUTE, AHI CHEQUENSE UDS. LOS
TIEMPOS....

[INTRO]
G|---------------|
D|---------------|
A|---------------|
E|-7/12-12/7-8/5-|

[VERSO]
G|-------------|
D|-------------|
A|-77----------|
E|----77-99-77-|

[CORO]
G|---------------------------------------|
D|---------------------------------------|
A|-777-7-10------------------1010-10-8-7-|
E|----------777-8-1010101010-------------|

[PUENTE]
G|-----------------|
D|-----------------|
A|-7-----------7---|
E|--7-8-10-8-7---7-|

[PUENTE CONT...]
G|-------------------------------------|
D|-------------------------------------|
A|-777777710---------------------------|
E|-----------7777778-8-8-8-8-8-810-810-|

[PUENTE CONT...]
G|----------------------------------------------------|
D|----------------------------------------------------|
A|----------------------------------------------------|
E|-101010101010108-101010101010108-101010101010108-10-|

[FIN]
G|------------------------|
D|------------------------|
A|-1010-10-8-7-10---------|
E|----------------7-77710-|
Suggest correction
Give kudos to tab author, rate the tab!
1 2 3 4 5
comments
print report bad tab
guest
You may want to rate the tab now too:
select rating
Wanna post a correction for this tab? Suggest correction