Oops, an error
Loading. Please wait.

Inocencia Tab

by Gula
24 views 1 this week
no commentswrite comment
1 2 3 4 5
3 more votes to show rating
add to favorites
launch autoscroll
font size
0
reset
how to read this tab
guitar tuner
×
Best way to learn
"Inocencia"
Autoscroll
slow
fast
+/-
esc
set tempo
stop
jaime127@

	INTRO:
e-/-------------------------------------------------------------------------------------
B-/-------------------------------------------------------------------------------------
G-/-------------------------------------------------------------------------------------
D-/----9--9--9--7--7--7--------------------------------------------------12----12---12--
A-/----7--7--7--5--5--5----5--5--5----10---10---10----9--9--9-----10----10---10---------
E-/----------------------------3--3--3----8-----8----8------7--7--7---------------------

e-/-------------------------------------------------------------------------------------
B-/-------------------------------------------------------------------------------------
G-/-------------------------------------------------------------------------------------
D-/----9--9--9--5--5--5-----------------------------------------------------------------
A-/----7--7--7--7--7--7----5--5--5----10---10---10-----9--------------------------------
E-/----------------------------3--3--3----8-----8----8-------7--------------------------

VERSO:

e-/-------------------------------------------------------------------------------------
B-/-------------------------------------------------------------------------------------
G-/-------------------------------------------------------------------------------------
D-/---------------------------2--2--2--2---5--5--5--5--5--7--7--7--7---9--7-------------
A-/----5--5--5--5--5--5---2--2--2--2---3--3--3--3--3--5--5--5--5---7--5-----------------
E-/----3--3--3--3--3--3-----------------------------------------------------------------
 
     "hoy que desperte recorde....."

e-/-------------------------------------------------------------------------------------
B-/-------------------------------------------------------------------------------------
G-/-------------------------------------------------------------------------------------
D-/---------------------------2--2--2--2---5--5--5--5--5-----9--9--9--9---7--7--7-------
A-/----5--5--5--5--5--5---2--2--2--2---3--3--3--3--3-----7--7--7--7---5--5--5-----------
E-/----3--3--3--3--3--3-----------------------------------------------------------------

BRIDGE:  pm......
e-/-------------------------------------------------------------------------------------
B-/-------------------------------------------------------------------------------------
G-/-------------------------------------------------------------------------------------
D-/-------------- 2------5--4-------5--X--5--X--5----7--7-------------------------------
A-/--- 5---------2------3--2-------3--X--3--X--3----5--5--------------------------------
E-/----3--------------------------------------------------------------------------------

COROS:

e-/-------------------------------------------------------------------------------------
B-/-------------------------------------------------------------------------------------
G-/-------------------------------------------------------------------------------------
D-/------5-----7----9--9--9--9--9----7---9--9--9--9--9----------------------------------
A-/------3-----5----7--7--7--7--7----5---7--7--7--7--7----------------------------------
E-/-------------------------------------------------------------------------------------
      
      "siendo niño crees que todo esta bien......"

e-/-------------------------------------------------------------------------------------
B-/-------------------------------------------------------------------------------------
G-/-------------------------------------------------------------------------------------
D-/------5--5--5--5--5----2-----5--5--5--5--5-------------------------------------------
A-/------3--3--3--3--3----4-----3--3--3--3--3-------------------------------------------
E-/-------------------------------------------------------------------------------------

      "luego otra vez no puedes saber...."

e-/-------------------------------------------------------------------------------------
B-/-------------------------------------------------------------------------------------
G-/-------------------------------------------------------------------------------------
D-/------5--5--5--5--5--5--9-----10--10--10--10--10--10--7---7---7---9---7--------------
A-/------3--3--3--3--3--3--7-----8----8----8---8----8----8---5---5---5---7---5----------
E-/-------------------------------------------------------------------------------------

"solo un poco de amor.... para que vuelva a ser como cuando tenia seis..."

ASI VA TODA LA ROLA ARREGLENSELAS USTEDES O MANDEME MAILS PARA QUE LES AYUDE...
(MEJOR ARRGLENSELAS SOLOS)

ESTE TAB LO MANDO JAIME FUERTE DESDE MEXICO....  
LA BANDA EN LA QUE TOCO SE LLAMA  LOF Y ES BIEN CABRONA ... ARRIBA EL PUNK!!!!!!!
Suggest correction
Give kudos to tab author, rate the tab!
1 2 3 4 5
comments
print report bad tab
guest
You may want to rate the tab now too:
select rating
Wanna post a correction for this tab? Suggest correction