Oops, an error
Loading. Please wait.

Se Mig Nu Tab

version 1
version 1

Acoustic

  • Advance tabs/chords with all details of the acoustic version by Gulddreng.

Whole song

4,360 views 174 this week
4 commentsread comments
1 2 3 4 5
x 6
add to favorites
launch autoscroll
font size
0
reset
how to read this tab
guitar tuner
Autoscroll
slow
fast
+/-
esc
set tempo
stop
Help us to improve Ultimate-Guitar.com Take our survey!
×
Author
Difficulty
intermediate
About this tab version
Advance tabs/chords with all details of the acoustic version by Gulddreng. Was this info helpful? Yes No
[Danish - Dansk]
Dette er en mere avanceret version af "Se Mig Nu Acoustic Chords" som er lavet af bruger "EmilUG".
      "Se Mig Nu Acoustic Chords": (https://tabs.ultimate-guitar.com/g/gulddreng/se_mig_nu_acoustic_crd.htm) 
Denne version er baseret på kommentaren fra bruger "oscardietz", og mit eget øre
Siden dette er min første tab, er du velkommen til at kommentere eller rette en hver fejl 
     - på forhånd tak, Peter

[English - Engelsk]
This is a more advance version of "Se Mig Nu Acoustic Chords" which is made by user "EmilUG".
      "Se Mig Nu Acoustic Chords": (https://tabs.ultimate-guitar.com/g/gulddreng/se_mig_nu_acoustic_crd.htm)
This version is based on the comment by user "oscardietz" and my own ear.
Since this is my first tab, fell free to comment or fix any mistakes 
     - thanks, Peter

The acoustic version of "Se Mig Nu" performed by Gulddreng can be found here: 
     https://www.youtube.com/watch?v=IwyBTbaEDdU

[Tab Information]
Gulddreng - Se Mig Nu (Acoustic)

Key: EADGBe

No Capo/Ingen Capo


[Intro]

   1Em     2       3Esus2  4         1Bm7    2       3Bm7     4Bbm7
e|---------------------------------|---------------------------------|
B|-------8-x-------------7-x-------|-------10x-----------------------|
G|-----9---x-----------9---x-------|-----7---x-----------7-------6---|
D|---9-----x---------9-----x-------|---7-----x---------7-------6-----|
A|-7-------x-------7-------x-------|---------------------------------|
E|---------------------------------|-7-------x-------7-------6-------|

   1Am7    2       3Am7     4         1Bm     2       3B7    4
e|---------------------------------|---------------------------------|
B|-------8-x-------------5-x-------|-------7-x-------10--------------|
G|-----5---x-----------5---x-------|-----8---x-------8---------------|
D|---5-----x---------5-----x-------|---9-----x-------9---------------|
A|---------------------------------|---------------------------------|
E|-5-------x-------5-------x-------|-7-------x-------7---------------|


Observe: The finger play with stump continues through the whole song.
Vær opmærksom: Fingerspillet med stump forsætter hele nummeret igennem.


[Verse 1]

              Em                          Esus2
Topgunn køber seks liter, gulddreng køber ti
             Bm                     Bm7
Emil er gået kold - han er allerede is
           Am7                     Am7 
Og hva' så Gilli champagner du kan drik
                  Bm7                           
Gulddreng han vil hellere have modeller på sin pik
           Em               Esus2
Og hva med Kidd han var the shit
                 Bm                       Bm7
Plejede at laver damer - nu laver han for lidt
                Am7                Am7 
Gulddreng laver penge og han laver damer
        Bm                       B7          
Jeg vil overtage spillet så jeg, jeg ligger planer


[Chorus]

     Em              Esus2
Bare se mig lige nu, se mig lige nu
  Bm                                Bm7
I prøver at følge med men jeg er så svær at gennemskue
   Am7             Am7
Se mig lige nu, se mig lige nu
  Bm                                B7
I prøver at følge med men jeg er så svær at gennemskue


[Verse 2]

        Em                           
Jeg vil ikke sidde på en bænk ligesom Bendtner
Bm                          Bm7
Klatretøsen skriver til mig at hun venter
     Am7                          Am7
Kesi siger han ikke har sovet i et år
               B7
Men det passer ikke, snakkede med hans mor i går
                    Em                     Esus2
Hun sagde at han er doven, sagde han sover længe
                Bm                             Bm7
Går for meget i byen og bruger for mange dumme penge
       Am7
Og hey Topgunn du troede ikke hun nåede det, men nej
       Bm
Der er bare ikke nogen piger der vil i Kongens Have med dig
              Em           Esus2
Det, det, det synd for dig Christopher, 
            Bm               B7
Medina slog op, jeg ved godt hvorfor 
                  Am7                         Am7
du var der kun på halv tid, Gulddreng var der altid
              Bm                 B7
Krøller eller ej, Medina gik sin vej, Uh ja...


[Chorus]

     Em              Esus2
Bare se mig lige nu, se mig lige nu
  Bm                                Bm7
I prøver at følge med men jeg er så svær at gennemskue
        Am7             Am7
Se, se, se mig lige nu, se mig lige nu
  Bm                                B7
I prøver at følge med men jeg er så svær at gennemskue


[Verse 3]

    Em                                  Esus2
Hey Remee, har lige noget jeg gerne vil sige
            Bm
Alle sammen ved at jeg har kysset med din pige
             Am7                          Am7 
Til alle jer fuckbois og alle jer wannabe modeller
                      B7
I ved godt det kun er guldet der tæller, åhhooo
Em                           Esus2 
De spillede Blak på klubben, jeg er ikke nede mette
Bm                   Bm7
Bollede hende tyk på toilettet - nu er hun fede mette
Am7                         Am7 
Gulddreng han er nummer et, Danmark de er nede mette,
Bm             B7
I er nummer 2, Og I må leve mette


[Chorus](x2) 
(play chorus 2 times)

     Em              Esus2
Bare se mig lige nu, se mig lige nu
  Bm                                Bm7
I prøver at følge med men jeg er så svær at gennemskue
        Am7                  Am7
Se, se, se mig lige nu, bare se mig lige nu
  Bm                                B7
I prøver at følge med men jeg er så svær at gennemskue, uuuh


[Outro]

   1Em     2       3Esus2  4         1Bm    2       3Bm7      4
e|---------------------------------|---------------------------------|
B|-------8-x-------------7-x-------|-------7-x-------------10-x------|
G|-----9---x-----------9---x-------|-----7---x-----------7----x------|
D|---9-----x---------9-----x-------|---9-----x---------9------x------| 
A|-7-------x-------7-------x-------|---------------------------------|
E|---------------------------------|-7-------x-------7--------x------|

                                     Tempo down ----->                              (Harmonics)
   1Am7    2       3Am     4         1Bm      2       3Bm7    4        1Em      2       3       4
e|---------------------------------|---------------------------------|-0----------------12-------------|
B|-------8-x-------------5-x-------|-7------------------------10-----|-0----------------12-------------|
G|-----5---x-----------5---x-------|-9------------------------7------|-0----------------12-------------|
D|---7-----x---------7-----x-------|-9------------------------9------|-2-------------------------------|
A|---------------------------------|---------------------------------|-2-------------------------------|
E|-5-------x-------5-------x-------|-7------------------------7------|-0-------------------------------|


************************************

| x  Dead note

************************************
Suggest correction
comments
print report bad tab
4 comments total. Showing first comments.
0 reply
stakkelslasse 72 Sep 14, 2016 12:25 PM

Fed tab, tak for det! Jeg synes dog det lyder mere rigtigt, hvis der spilles på 5. bånd på den dybe E streng på A-akkorderne i stedet. Altså således:

1Am7 2 3Am 4 1B 2 3Bm7 4
e|---------------------------------|---------------------------------|
B|-------8-x-------------5-x-------|-----------------10--------------|
G|-----7---x-----------7---x-------|-------8-x-----------------------|
D|---7-----x---------7-----x-------|-----9---x-------9---------------|
A|---------x---------------x-------|---9-----x-------9---------------|
E|-5---------------5---------------|-7-------x-------7---------------|

0 reply
peter.f1992 32 Sep 17, 2016 12:49 PM

Hi, Lasse. Jeg er enig. Jeg retter det og tak skal du have :)

0 reply
casperschounielsen 10 Oct 09, 2016 01:15 PM

Hej Peter, du er tæt på, men her er de korrekte tabs :)

1Em 2 3Esus2 4 1Bm7 2 3Bm 4Bbm
e|---------------------------------|---------------------------------|
B|-------8-x-------------7-x-------|-------10x-----------------------|
G|-----9---x-----------9---x-------|-----7---x-----------7-------6---|
D|---9-----x---------9-----x-------|---7-----x---------7-------6-----|
A|-7-------x-------7-------x-------|---------------------------------|
E|---------------------------------|-7-------x-------7-------6-------|

1Am7 2 3Am 4 1Bm 2 3Bm7 4
e|---------------------------------|---------------------------------|
B|-------8-x-------------5-x-------|-------7-x-------10--------------|
G|-----5---x-----------5---x-------|-----8---x-------8---------------|
D|---5-----x---------5-----x-------|---9-----x-------9---------------|
A|---------------------------------|---------------------------------|
E|-5-------x-------5-------x-------|-7-------x-------7---------------|

guest
You may want to rate the tab now too:
select rating
Wanna post a correction for this tab? Suggest correction