Oops, an error
Loading. Please wait.

Se Mig Nu Tab

version 2
version 2

Whole song

1,231 views 60 this week
no commentswrite comment
1 2 3 4 5
x 9
add to favorites
launch autoscroll
font size
0
reset
how to read this tab
guitar tuner
Autoscroll
slow
fast
+/-
esc
set tempo
stop
Help us to improve Ultimate-Guitar.com Take our survey!
×
Author
Difficulty
E-----------x----------x-----------x-------------------------x---------x----------7
B---------8-x--------7-x--------10-x-----------------------5-x------8--x-------7--7
G------9----x------9---x------7----x------7--------6------5--x-----5---x------8---8
D----9------x----9-----x----9------x----9---------8------5---x----5----x-----9-----
A--7--------x--7-------x-----------x-------------------------x---------x-----------
E-----------x----------x--7--------x--7---------6-------5----x--5------x----7------

E-----------x----------x-----------x-------------------------x---------x----------7
B---------8-x--------7-x--------10-x-------10--------------5-x------8--x-------7--7
G------9----x------9---x------7----x------7---------------5--x-----5---x------8---8
D----9------x----9-----x----9------x----9----------------5---x----5----x-----9-----
A--7--------x--7-------x-----------x-------------------------x---------x-----------
E-----------x----------x--7--------x--7-----------------5----x--5------x----7------

Suggest correction
comments
print report bad tab
guest
You may want to rate the tab now too:
select rating
Wanna post a correction for this tab? Suggest correction