Oops, an error
Loading. Please wait.

Dont Say Its Over Bass Tab

by Gun
224 views 1 this week
no commentswrite comment
1 2 3 4 5
please rate
add to favorites
launch autoscroll
font size
0
reset
guitar tuner
Autoscroll
slow
fast
+/-
esc
set tempo
stop
Help us to improve Ultimate-Guitar.com Take our survey!
×
Author
Difficulty
-------------------------------------------------------------------------------
                             DON'T SAY IT'S OVER - Gun
-------------------------------------------------------------------------------
Tabbed by:
E-mail:

Tuning: Standard

Intro
G|--r--|---------------------------------------------------------------------|
D|--e--|---------------------------------------------------------------------|
A|--s--|-2-2-2-2-2-2-2-2-2-2-2-2-2-2-2-2-0-0-0-0-0-0-0-0-0-0-0-0-0-0-0-0-----|
E|--t--|-----------------------------------------------------------------3-3-|

G|---------------------------------------------------------------------------|
D|---------------------------------------------------------------------------|
A|-----------------------------0-0-0-0-0-0-0-0-0-0-0-0-0-0-0-0---------------|
E|-3-3-3-3-3-3-3-3-3-3-3-3-3-3-----------------------------------------------|

Verse
 |2x
G|---------------------------------------------------------------------------|
D|*--------------------------------------------------------------------------|
A|*-2-2-2-2-2-2-2-2-2-2-2-2-2-2-2-2-0-0-0-0-0-0-0-0-0-0-0-0-0-0-0-0----------|
E|------------------------------------------------------------------3-3-3-3--|

G|--------------------------------------------------------|------------------|
D|-------------------------------------------------------*|------------------|
A|-------------------------0-0-0-0-0-0-0-0-0-0-0-0-0-0-0-*|------------------|
E|-3-3-3-3-3-3-3-3-3-3-3-3--------------------------------|------------------|

Chorus
 |2x
G|---------------------------------------------------------------------------|
D|*--------------------------------------------------------------------------|
A|*-5-5-5-5-5-5-5-5-5-5-5-5-5-5-5-5-0-0-0-0-0-0-0-0-0-0-0-0-0-0-0-0----------|
E|------------------------------------------------------------------0-0-0-0--|

                                                            |
G|----------------------------------------------------------|----------------|
D|---------------------------------------------------------*|----------------|
A|---------------------------------------------------------*|----------------|
E|-0-0-0-0-0-0-0-0-0-0-0-0-3-3-3-3-3-3-3-3-3-3-3-3-3-3-3-3--|----------------|

Interlude
G|---------------------------------------------------------------------------|
D|---------------------------------------------------------------------------|
A|-2-2-2-2-2-2-2-2-2-2-2-2-2-2-2-2-0-0-0-0-0-0-0-0-0-0-0-0-0-0-0-0-----------|
E|-----------------------------------------------------------------3-3-3-3-3-|

G|---------------------------------------------------------------------------|
D|---------------------------------------------------------------------------|
A|-----------------------0-0-0-0-0-0-0-0-0-0-0-0-0-0-0-----------------------|
E|-3-3-3-3-3-3-3-3-3-3-3-----------------------------------------------------|

[Verse]

[Chorus]

G|---------------------------------------------------------------------------|
D|---------------------------------------------------------------------------|
A|-----------------10-10-10-10-10-10-10-10-----------------------------------|
E|-3-3-3-3-3-3-3-3-----------------------------------------------------------|

Bridge
 |4x
G|--------------------------------|------------------------------------------|
D|*------------------------------*|------------------------------------------|
A|*------5----0--0-0-0-0-0-0-0-0-*|-0-0-0-0-0-0-0-0--------------------------|
E|--3-----------------------------|------------------------------------------|

Solo
 |2x
G|---------------------------------------------------------------------------|
D|*--------------------------------------------------------------------------|
A|*-2-2-2-2-2-2-2-2-2-2-2-2-2-2-2-2-0-0-0-0-0-0-0-0-0-0-0-0-0-0-0-0----------|
E|------------------------------------------------------------------3-3-3-3--|

G|--------------------------------------------------------|------------------|
D|-------------------------------------------------------*|------------------|
A|-------------------------0-0-0-0-0-0-0-0-0-0-0-0-0-0-0-*|------------------|
E|-3-3-3-3-3-3-3-3-3-3-3-3--------------------------------|------------------|

Chorus
 |2x
G|---------------------------------------------------------------------------|
D|*--------------------------------------------------------------------------|
A|*-5-----------------------------7-0-----------------------------2----------|
E|------------------------------------------------------------------0--------|
                            ____                             ___
                           |1st                             |2nd
G|-------------------------|--------------------------------|----------------|
D|-------------------------|-------------------------------*|----------------|
A|-------------------------|-------------------------------*|----------------|
E|---------------------0-2-|-3------------------------------|-3-3-3-3-3-3-3--|

G|---------------------------------------------------------------------------|
D|---------------------------------------------------------------------------|
A|---------------------------------------------------------------------------|
E|-3-3-3-3-3-3-3-3-3---------------------------------------------------------|

Outro
 |8x
G|---------------------------------------------------------------------------|
D|*--------------------------------------------------------------------------|
A|*-5-5-5-5-5-5-5-5-5-5-5-5-5-5-5-5-0-0-0-0-0-0-0-0-0-0-0-0-0-0-0-0----------|
E|------------------------------------------------------------------0-0-0-0--|

                                                            |
G|----------------------------------------------------------|----------------|
D|---------------------------------------------------------*|----------------|
A|---------------------------------------------------------*|----------------|
E|-0-0-0-0-0-0-0-0-0-0-0-0-3-3-3-3-3-3-3-3-3-3-3-3-3-3-3-3--|----------------|


| /  slide up
| \  slide down
| h  hammer-on
| p  pull-off
| ~  vibrato
| +  harmonic
| x  Mute note
===============================================================================
Suggest correction
Give kudos to tab author, rate the tab!
1 2 3 4 5
comments
print report bad tab
guest
You may want to rate the tab now too:
select rating
Wanna post a correction for this tab? Suggest correction