Oops, an error
Loading. Please wait.

Word Up Bass Tab

version 1
version 1

Whole song

Interactive

by Gun
11,543 views 6 this week
1 commentread comment
1 2 3 4 5
x 3
add to favorites
launch autoscroll
font size
0
reset
guitar tuner
Autoscroll
slow
fast
+/-
esc
set tempo
stop
Help us to improve Ultimate-Guitar.com Take our survey!
×
Author
Difficulty
Artist: Gun
Song: Word Up
Tuning: Standard tuning, E A D G

Very fun song to play, i learned this at college with a bit of help. But most of it was 
easy to pick up after that. Enjoy!


No bass until 00:14

Intro/Verse x6
G:--------------------|
D:--------------------|
A:---------5-5--------|
E:-2-2-000----0-0-222-|

"Chorus" (Word up, everybody say...) x2

(You can play the first riff to the verse, but to make it abit more fun
you can play it in a higher octave...)

G:---------------------|
D:---------------------|
A:---------------------|
E:-9-9-777-5-5-7-7-999-|

Verse x4
G:--------------------|
D:--------------------|
A:---------5-5--------|
E:-2-2-000----0-0-222-|

Chorus x1
G:---------------------|
D:---------------------|
A:---------------------|
E:-9-9-777-5-5-7-7-999-|

Bridge 1 x8
G:---------------|
D:---44---44---4-|
A:---------------|
E:-2----2----2---|

Through Solo x4
G:--------------------|
D:--------------------|
A:---------5-5--------|
E:-2-2-000----0-0-222-|

Bridge 2 x8 (W,O,R,D UP)
G:--------------|
D:---44---44----|
A:--------------|
E:-2----2----3--|

Verse x4
G:--------------------|
D:--------------------|
A:---------5-5--------|
E:-2-2-000----0-0-222-|

Chorus till end
G:---------------------|
D:---------------------|
A:---------------------|
E:-9-9-777-5-5-7-7-999-|

Amy x
Suggest correction
Give kudos to tab author, rate the tab!
1 2 3 4 5
comments
print report bad tab
1 comment total.
0 reply
Andsome 82 Apr 12, 2011 07:09 AM

If you want to play the higher octave, as you suggest, then you need to play the -9-9-777-5-5-7-7-999-| sequence on the A string and not the E.

Otherwise nice work.
~~Andsome

guest
You may want to rate the tab now too:
select rating
Wanna post a correction for this tab? Suggest correction