Oops, an error
Loading. Please wait.

Casualties And Tragedies bass

66 views 1 this week
no commentswrite comment
1 2 3 4 5
x 3
add to favorites
×
Save as Personal and add changes to this tab that will be seen only by you. Learn more ›
×
You can save this tab as Personal to edit and correct it or add notes. All changes will be seen only by you. Learn more »
launch autoscroll
font size
0
reset
guitar tuner
edit
Autoscroll
slow
fast
+/-
esc
set tempo
stop
Author
Difficulty
-----------------------------------------------------------------------------
                             Casualties and Tragedies - Gunfire 76
-----------------------------------------------------------------------------
Tabbed by: Andu Needle
E-mail: sulfur_in_my_lungs@yahoo.com

Intro:

G|------------------------------------------------------|
D|------------------------------------------------------|
A|----------6~------------------------------------------|
E|-9999-040---------------------------------------------|(x4)

G|------------------------------------------------------|
D|------------------------------------------------------|
A|-6----------------------------------------------------|
E|---06-04-9999-040-------------------------------------|(x4)

G|------------------------------------------------------|
D|------------------------------------------------------|
A|-66666666-66666666------------------------------------|
E|------------------------------------------------------|

Verse:

G|------------------------------------------------------|
D|------------------------------------------------------|
A|-6666-------------------------------------------------|
E|------6666-44444444-----------------------------------|(x4)

Pre chorus:

G|---------------6--------------------------------------|
D|------------78---864----------------------------------|
A|-6666----------------6--------------------------------|
E|------666-4-------------------------------------------|(x3)

G|------------------------------------------------------|
D|------------------------------------------------------|
A|-66666666-66666666------------------------------------|
E|------------------------------------------------------|

Chorus:

G|------------------------------------------------------|
D|------------------------------------------------------|
A|-66666666(x2)-----------------------------------------|
E|--------------668-6668-6668-66686---------------------|

G|------------------------------------------------------|
D|------------------------------------------------------|
A|----------66666666------------------------------------|
E|-44444444----------668-6668-6668-66686----------------|

These two parts are played twice.

After the first chorus is the intro played twice.
Verse 2 is like the first one!
Pre chorus 2 is like the first one!
Chorus 2 is like the first one!

After the second chorus is played the first part of the intro twice.

Solo:

G|--------------------------------------------------------|
D|--------------------------------------------------------|
A|-6------------------------------------------------------|
E|---06-04-9999-040---------------------------------------|(x7)

G|--------------------------------------------------------|
D|--------------------------------------------------------|
A|-66666666-66666666--------------------------------------|
E|--------------------------------------------------------|

Chorus 3 is like the others!

Ending:

G|--------------------------------------------------------|
D|--------------------------------------------------------|
A|-6------------------------------------------------------|
E|---06-04-9999-040---------------------------------------|(x4)

G|--------------------------------------------------------|
D|--------------------------------------------------------|
A|----------6~--------------------------------------------|
E|-9999-040-----------------------------------------------|(x4)

            
            
Suggest correction
Creating personal tab
Creating personal tab
You can edit any tab online and save it as your Personal.

You can edit, replace or remove any tab part or add personal notes – all changes will be seen only by you.

Personal tabs can be accessed anytime from any device, even offline.
Learn more »
Give kudos to tab author, rate the tab!
1 2 3 4 5
comments
print report bad tab
guest
You may want to rate the tab now too:
select rating
Wanna post a correction for this tab? Suggest correction