Oops, an error
Loading. Please wait.

What Did You Expect Bass Tab

170 views 1 this week
no commentswrite comment
1 2 3 4 5
x 3
add to favorites
launch autoscroll
font size
0
reset
guitar tuner
Autoscroll
slow
fast
+/-
esc
set tempo
stop
Help us to improve Ultimate-Guitar.com Take our survey!
×
Author
Difficulty
intermediate
-----------------------------------------------------------------------------
                             What Did You Expect - Gunfire 76
-----------------------------------------------------------------------------
Tabbed by: Andu Needle
E-mail: sulfur_in_my_lungs@yahoo.com

Intro:

G|----------------------------------------------------------------|
D|----------------------------------------------------------------|
A|---3~-----------------------------------------------------------|
E|-0--------------------------------------------------------------|(x4)

After the 4th time, you go straight into the second part of the intro. The last 3 from 
the first part is the first 3 from the second one.

G|----------------------------------------------------------------|
D|----------------------------------------------------------------|
A|-33333----------------------------------------------------------|
E|-------0-44444-0------------------------------------------------|(x4)

Verse:

G|-----------------------------------------------------------------|
D|-----------------------------------------------------------------|
A|-33333-----------------------------------------------------------|
E|-------0-44444-0-------------------------------------------------|(x4)

Pre chorus:

G|-----------------------------------------------------------------|
D|-----------------------------------------------------------------|
A|-----------------------------------------------------------------|
E|-33333333(x2)-44444444(x2)-33333333(x2)-44444444-66666666--------|(x4)

Intro part again.
Verse 2 is like the first one!
Pre chorus 2 is like the first one!

Chorus:

G|-----------------------------------------------------------------|
D|-----------------------------------------------------------------|
A|-3-333333----------3-333333--------------------------------------|
E|----------4-444444----------4-44-6-66----------------------------|(x4)

Bridge part before solo is the pre chorus.
During the solo you play the chorus for 4 times.
Pre chorus again, which is like the others!
The last chorus is like the others also.
And during the last solo you play the chorus til the end of the song.
The ending note is C!

I must say I am not sure about the song, but for me it sounds pretty close.
Suggest correction
Give kudos to tab author, rate the tab!
1 2 3 4 5
comments
print report bad tab
guest
You may want to rate the tab now too:
select rating
Wanna post a correction for this tab? Suggest correction