Oops, an error
Loading. Please wait.

Beautiful Things chords

version 4
version 4
by Gungor
22,437 views 39 this week
no commentswrite comment
1 2 3 4 5
x 11
add to favorites
×
Save as Personal and add changes to this tab that will be seen only by you. Learn more ›
×
You can save this tab as Personal to edit and correct it or add notes. All changes will be seen only by you. Learn more »
launch autoscroll
font size
0
reset
transpose
0
reset
simplify chords
display chords
guitar tuner
edit
Autoscroll
slow
fast
+/-
esc
set tempo
stop
Strumming
There is no strumming pattern for this song yet. and get +5 IQ
 
Tuning: Drop D 
  

      G 6/9           A11           D           Bm7           Asus2
E----------------------------------5---------------------------------------|
B------3-------------3-------------3------------3--------------------------|
G------4-------------6-------------2------------4--------------2-----------|
D----------------------------------4------------4--------------2-----------|
A-----------------------------------------------2--------------------------|
D------5-------------5-----------------------------------------------------|


Verse 1:
G6/9      A11   D   
All       this  pain
                G 6/9 A11      D
I wonder if I’ll ever find my way
                 G 6/9      A11    Bm7      Asus2      G 6/9  A11  D
I wonder if I my life could really change  at      all

G 6/9     A11   D
All       this  earth
                G 6/9  A11       D
Could all that is lost ever be found

               G 6/9    A11      Bm7       A              G 6/9  A11  D
Could a garden come up from this ground   at         all

Chorus:
D
You make beautiful things
                                         D sus2
You make beautiful things out of the dust
You make beautiful things
You make beautiful things out of us

Verse 2: (same as verse 1)
All around
Life is springing up from this old ground
Out of chaos life is being found in You

Chorus 2:
D
You make beautiful things
                                         D sus2    
You make beautiful things out of the dust
D
You make beautiful things
                                   Daug
You make beautiful things out of us

G6/9                      A11
You make beautiful things
                G6/9                    A11           
You make beautiful things out of the dust
D
You make beautiful things
                                                                   
You make beautiful things out of 

Instrumental:  
              D     F#   D    C#     F#    C#     B   C#     G    D
     E------------------------------------------------------------2--|
     B------------------------------------------------------------3--|      
     G--------7----11-----7----6-----11-----6-----4----6-----12---2--|
     D---------------------------------------------------------------|
     A--------5-----9-----5----4------9-----4-----2----4-----10------|      
     D---------------------------------------------------------------|

Bridge: (stum: mute)
D           C#
You make me new
        B         D
You are making me new 

Chorus 2:
      D
You make beautiful things
                                         Daug
You make beautiful things out of the dust
G6/9                      A11
You make beautiful things
                G6/9                    A11           
You make beautiful things out of the dust

            
            
Suggest correction
Creating personal tab
Creating personal tab
You can edit any tab online and save it as your Personal.

You can edit, replace or remove any tab part or add personal notes – all changes will be seen only by you.

Personal tabs can be accessed anytime from any device, even offline.
Learn more »
comments
print report bad tab
guest
Wanna post a correction for this tab? Suggest correction