Oops, an error
Loading. Please wait.

Wonder intro tab

by Gungor
67 views 1 this week
no commentswrite comment
1 2 3 4 5
3 more votes to show rating
add to favorites
×
Save as Personal and add changes to this tab that will be seen only by you. Learn more ›
×
You can save this tab as Personal to edit and correct it or add notes. All changes will be seen only by you. Learn more »
launch autoscroll
font size
0
reset
how to read this tab
guitar tuner
edit
Autoscroll
slow
fast
+/-
esc
set tempo
stop
Author
Difficulty
Here's the guitar part for 'Wonder' up until the first chorus. Mr Gungor plays around with
the timing (rit./rubato) at the end of the first verse. But as tab doesn't reflect the rhythms, I'm sure 
you'll be listening to the recording for timing anyway. the time signatures do change so i've written 
my interpretation of these changes above.

If you would like the written sheet music or tab with rhythms above then comment below with your email address
and I'll send the full transcription.

Be careful to note the very slight changes between each repeat. For example on the first version the first 
two notes of the bassline move from D-C# (7-6 both on G string) to D-G# (7 on G string, 6 on D string) on the
other repeats. The placement of the C# in the bassline (fret 9 E string) also changes between the second and 
third repeat, so basically, don't assume that it's the same every time.

Happy playing!

[Intro]

  3/4                  3/4                 2/4           2/4           3/4
e|-------------------|-------------------|-------------|---------------|---------------|
B|-7----9-10-7--9-10-|-7----9-10-7--9-10-|-------------|---------------|------7--------|
G|-7--6------7-------|-6---------7-------|-9-7-6-9-7-6-|-4--6-7--7-6---|----7---7------|
D|-------------------|----9--------------|-------7-----|-------------7-|---7------7----|
A|-------------------|-------------------|-------------|-5--7-9--9-7-9-|-9----------9--|
E|-------------------|-------------------|-9-----------|---------------|---------------|


[Verse] 'Once I had wings and I flew...'

  3/4                  3/4                 2/4           2/4          2/4
e|-------------------|-------------------|-------------|-------------|-------------|
B|-7----9-10-7--9-10-|-7----9-10-7--9-10-|-------------|-------7-----|-9--10-------|
G|-7-----------------|-6-----------------|-9-7-6-9-7-6-|-4-6-7-7-7---|--------9--7-|
D|----6------7-------|----9------7-------|-------7-----|-----------7-|-------------|
A|-------------------|-------------------|-------------|-5-7-9-------|-------------|
E|-------------------|-------------------|-9-----------|-------------|-------------|


'There I could see it all clear...'

   3/4                 3/4                 2/4           2/4          4/4
e|-------------------|-------------------|-------------|--------------|-----------------|
B|-7----9-10-7--9-10-|-7--7-9-10-7--9-10-|-------------|--------------|-------7---10/15-|
G|-7-----------------|-6-----------------|-9-7-6-9-7-6-|-4-6-7--7-6---|-----7---7-------|
D|----6------7-------|----9------7-------|-7-----------|------------7-|---7-------------|
A|-------------------|-------------------|-------------|-5------------|-9---------------|
E|-------------------|-------------------|-------9-----|--------7-----|-----------------|





************************************

 /   Slide up


************************************

            
            
Suggest correction
Creating personal tab
Creating personal tab
You can edit any tab online and save it as your Personal.

You can edit, replace or remove any tab part or add personal notes – all changes will be seen only by you.

Personal tabs can be accessed anytime from any device, even offline.
Learn more »
Give kudos to tab author, rate the tab!
1 2 3 4 5
comments
print report bad tab
guest
You may want to rate the tab now too:
select rating
Wanna post a correction for this tab? Suggest correction