Oops, an error
Loading. Please wait.

14 Years bass

version 2
version 2

Whole song

Interactive

187 views 1 this week
5 commentsread comments
1 2 3 4 5
3 more votes to show rating
add to favorites
×
Save as Personal and add changes to this tab that will be seen only by you. Learn more ›
×
You can save this tab as Personal to edit and correct it or add notes. All changes will be seen only by you. Learn more »
launch autoscroll
font size
0
reset
guitar tuner
backing track
0:00
0:00
edit
Autoscroll
slow
fast
+/-
esc
set tempo
stop
Credit to Mehmet T. Cýrakoglu. I just arranged the fills to work with autoscroll.

Intro
|---------|---------|---------|---------|---------|---------|---------|---------|
|---------|---------|---------|---------|---------|---------|---------|---------|
|---------|---------|---------|---------|---------|---------|---------|---------|
|-5-------|-3-------|-1-------|-0-------|-5-------|-3-------|-1-------|-0-------|

Verse
|-------------------|-------------------|-------------------|-------------------------|
|-----7---------7---|-----5---------5---|-----3---------3---|-----------2---2--2-0----|
|-------------------|-------------------|-------------------|----------------------0--|
|-5------5---5------|-3------3---3------|-1------1---1------|-0--0--3H4---------------|

|-------------------|-------------------|-------------------|------------------------|
|-----7---------7---|-----5---------5---|-----3---------3---|-----------2---2--------|
|-------------------|-------------------|-------------------|------------------------|
|-5------5---5------|-3------3---3------|-1------1---1------|-0--0--3H4--------0--0--|

Pre-Chorus
|---------------------|---------------------|---------------------|-------------------------|
|---------------------|---------------------|---------------------|-------------------------|
|-0---0---0--0--0--0--|-3---3---3--3--3--3--|-5---5---5--5--5--5--|-5-----------------------|
|---------------------|---------------------|---------------------|----0--2--0--3--0--4--0--|

|---------------------|---------------------|---------------------|-------------------------|
|---------------------|---------------------|---------------------|-------7--7--5--5--------|
|-0---0---0--0--0--0--|-3---3---3--3--3--3--|-5---5---5--5--5--5--|-5--0--------------7--7--|
|---------------------|---------------------|---------------------|-------------------------|

|---------------------|---------------------|---------------------|---------------------|
|---------------------|---------------------|---------------------|---------------------|
|-0---0---0--0--0--0--|-3---3---3--3--3--3--|-5---5---5--5--5--5--|-5--0--5---5--0--5---|
|---------------------|---------------------|---------------------|---------------------|

|---------------------|---------------------|---------------------|-----------------------|
|---------------------|---------------------|---------------------|-----------------------|
|-0---0---0--0--0--0--|-3---3---3--3--3--3--|-5---5---5--5--5--5--|-5--5--5--5--5--5--5---|
|---------------------|---------------------|---------------------|-----------------------|

Chorus
|--------|--------|--------|--------|--------|--------|--------|---------------------------|
|--------|--------|--------|--------|--------|--------|--------|---------------------------|
|-0------|--------|-5------|--------|-0------|--------|-5------|-(5)--5--------------------|
|--------|-3------|--------|--------|--------|-3------|--------|---------2--0--3--0--4--0--|

Verse 2
|-------------------|-------------------|-------------------|-------------------------|
|-----7---------7---|-----5---------5---|-----3---------3---|-----------2---2--2-0----|
|-------------------|-------------------|-------------------|----------------------0--|
|-5------5---5------|-3------3---3------|-1------1---1------|-0--0--3H4---------------|

|-------------------|-------------------|-----------------|-------------------------|
|-----7---------7---|-----5---------5---|-----3-----------|-------2--2--0--0--------|
|-------------------|-------------------|---------------3-|-------------------2-----|
|-5------5---5------|-3------3---3------|-1------1---1----|-0--0-----------------0--|

|-------------------|-------------------|-------------------|-------------------------|
|-----7---------7---|-----5---------5---|-----3---------3---|-----------2---2--2-0----|
|-------------------|-------------------|-------------------|----------------------0--|
|-5------5---5------|-3------3---3------|-1------1---1------|-0--0--3H4---------------|

|-------------------|-------------------|-----------------|-------------------------|
|-----7---------7---|-----5---------5---|-----3---------3-|-----------2--0----------|
|-------------------|-------------------|-----------------|------------------2p0-0--|
|-5------5---5------|-3------3---3------|-1------1---1----|-0--0--3H4---------------|

|-------------------|-------------------|-------------------|-------------------------|
|-----7---------7---|-----5---------5---|-----3---------3---|-----------2---2--2-0----|
|-------------------|-------------------|-------------------|----------------------0--|
|-5------5---5------|-3------3---3------|-1------1---1------|-0--0--3H4---------------|

|-------------------|-------------------|-------------------|------------------------|
|-----7---------7---|-----5---------5---|-----3---------3---|-----------2---2--------|
|-------------------|-------------------|-------------------|------------------------|
|-5------5---5------|-3------3---3------|-1------1---1------|-0--0--3H4--------0--0--|

Pre-Chorus 2
|---------------------|---------------------|---------------------|-------------------------|
|---------------------|---------------------|---------------------|-------------------------|
|-0---0---0--0--0--0--|-3---3---3--3--3--3--|-5---5---5--5--5--5--|-5-----------------------|
|---------------------|---------------------|---------------------|----0--2--0--3--0--4--0--|

|---------------------|---------------------|---------------------|-------------------------|
|---------------------|---------------------|---------------------|-------7--7--5--5--------|
|-0---0---0--0--0--0--|-3---3---3--3--3--3--|-5---5---5--5--5--5--|-5--0--------------7--7--|
|---------------------|---------------------|---------------------|-------------------------|

|---------------------|---------------------|---------------------|---------------------|
|---------------------|---------------------|---------------------|---------------------|
|-0---0---0--0--0--0--|-3---3---3--3--3--3--|-5---5---5--5--5--5--|-5--0--5---5--0--5---|
|---------------------|---------------------|---------------------|---------------------|

|---------------------|---------------------|---------------------|-------------------|
|---------------------|---------------------|---------------------|-------4---5---6---|
|-0---0---0--0--0--0--|-3---3---3--3--3--3--|-5---5---5--5--5--5--|-5--0--------------|
|---------------------|---------------------|---------------------|-------------------|

Chorus 2
|--------|--------|--------|--------|--------|--------|--------|---------------------------|
|--------|--------|--------|--------|--------|--------|--------|---------------------------|
|-0------|--------|-5------|--------|-0------|--------|-5------|-(5)--5--------------------|
|--------|-3------|--------|--------|--------|-3------|--------|---------2--0--3--0--4--0--|

Solo
|---------------------|---------------------|---------------------|-------------------------|
|---------------------|---------------------|---------------------|-------------------------|
|-0---0---0--0--0--0--|---------------------|-5---5---5--5--5--5--|-5-----------------------|
|---------------------|-3---3---3--3--3--0--|---------------------|----0--2--0--3--0--4--0--|

|-------------------|---------------------|-------------------------|-----------------------|
|-------------------|---------------------|-------------------------|------7---7--9--7------|
|-0---0---0--0--0---|---------------------|-5--5--5--5--5--5--5--5--|(7)/9--------------9\--|
|-------------------|-3---3---3--3--3--0--|-------------------------|-----------------------|

|---------------------|-----------------------|-------------------------|-------------------------|
|---------------------|-----------------------|-------------------------|-------4--4--5--5--6--6--|
|-0---0---0--0--0--0--|-3--3--3---3--3--3--3--|-5--5--5--5--5--5--5--5--|-5--5--------------------|
|---------------------|-----------------------|-------------------------|-------------------------|

|---------------------|----------------------|-----------------------|-------------------------|
|---------------------|----------------------|-----------------------|-------------------------|
|-0---0---0--0--0--0--|-3--3--3--3--3--3--3--|-5---5--5--5--5--5--5--|-5--5--5--5--5--5--5--5--|
|---------------------|----------------------|-----------------------|-------------------------|

|-------------------------|-------------------------|-------------------------|
|-------------------------|-------------------------|-------------------------|
|-5--5--5--5--5--5--5--5--|-5--5--5--5--5--5--5--5--|-5--5--5--5--5--5--5--5--|
|-------------------------|-------------------------|-------------------------|

|-------------------------|-------------------------|-------------------------|
|-------------------------|-------------------------|-------------------------|
|-5--5--5--5--5--5--5--5--|-5--5--5--5--5--5--5--5--|-5--5--5--5--5--5--5--5--|
|-------------------------|-------------------------|-------------------------|

Verse 4
|---------|---------|---------|---------|---------|---------|---------|-------------------|
|---------|---------|---------|---------|---------|---------|---------|-----2---0---------|
|---------|---------|---------|---------|---------|---------|---------|-------------------|
|-5-------|-3-------|-1-------|-0-------|-5-------|-3-------|-1-------|-0-----------2--0--|

|-------------------|-------------------|-------------------|-------------------------|
|-----7---------7---|-----5---------5---|-----3---------3---|-----------2---2--2-0----|
|-------------------|-------------------|-------------------|----------------------0--|
|-5------5---5------|-3------3---3------|-1------1---1------|-0--0--3H4---------------|

|-------------------|-------------------|-------------------|------------------------|
|-----7---------7---|-----5---------5---|-----3---------3---|-----------2---2--------|
|-------------------|-------------------|-------------------|------------------------|
|-5------5---5------|-3------3---3------|-1------1---1------|-0--0--3H4--------0--0--|

Outro
|---------------------|---------------------|---------------------|-------------------------|
|---------------------|---------------------|---------------------|--------7---7--9--7------|
|-0---0---0--0--0--0--|-3---3---3--3--3--3--|-5---5---5--5--5--5--|-(7)/9---------------9\--|
|---------------------|---------------------|---------------------|-------------------------|

|---------------------|---------------------|---------------------|-------------------------|
|---------------------|---------------------|---------------------|-------------------------|
|-0---0---0--0--0--0--|-3---3---3--3--3--3--|-5---5---5--5--5--5--|-5-----------------------|
|---------------------|---------------------|---------------------|----0--2--0--3--0--4--0--|

|---------|---------|-------------|---------------------|---------|---------|-----------|-----------|
|---------|---------|----------10-|-10---9--9--7--------|---------|---------|-----------|-----------|
|-0-------|-3-------|-(3)---------|----------------10\--|-0-------|-3-------|-(3)-------|-(3)-------|
|---------|---------|-------------|---------------------|---------|---------|-----------|-----------|

            
            
Suggest correction
Creating personal tab
Creating personal tab
You can edit any tab online and save it as your Personal.

You can edit, replace or remove any tab part or add personal notes – all changes will be seen only by you.

Personal tabs can be accessed anytime from any device, even offline.
Learn more »
Give kudos to tab author, rate the tab!
1 2 3 4 5
comments
print report bad tab
5 comments total. Showing first comments.
+1 reply
scottr7 1,323 Apr 10, 2016 10:06 AM

Credit to Mehmet T. Cýrakoglu. I just arranged it to work with autoscroll to make it easier to play along.

+1 reply
xxxxChrisTxxxx [tm] 10,215 Jul 02, 2016 08:05 AM

Thanks, much easier to follow than Ver 1 - last part of the solo is wrong though, it stays on the D# not the A# shown for 3 measures.

guest
You may want to rate the tab now too:
select rating
Wanna post a correction for this tab? Suggest correction