Oops, an error
Loading. Please wait.

Back Off Bitch Tab

version 2
version 2

Whole song

6,013 views 12 this week
no commentswrite comment
1 2 3 4 5
accurate
x 5
add to favorites
launch autoscroll
font size
0
reset
how to read this tab
guitar tuner
Autoscroll
slow
fast
+/-
esc
set tempo
stop
Help us to improve Ultimate-Guitar.com Take our survey!
×
Author
dropped down a half step. great song, slash is my hero, shame about his top hat being stolen

eb|---------------------------------------0-----------------|
bb|---------------------------------------0-----------------|
gb|---------------------------------------1-----------------|
db|-2--0------------2---------------------------------------|
ab|------2--0-------2---------------------------------------|
eb|-------------3---0---------------------------------------|

eb|-------------------------------------------------------------|
bb|-----0-------------------------------------------------------|
gb|-2b----2--0------------------------------------------7h9--9--|
db|-------------2--0--2---------0h2-2/4--4/5--5/7--7h9----------|
ab|-------------------------------------------------------------|
eb|-------------------------------------------------------------|


eb|-10--10---10---10----10------10-------------------------------|
bb|-10b-10r--10b--10br--10b-----10br--8-----------8h10--10/12----|
gb|--------------------------------------9----7h9----------------|
db|--------------------------------------------------------------|
ab|--------------------------------------------------------------|
eb|--------------------------------------------------------------|


eb|------10--12------15--17-15-17b--17b--17b--17b--17b-17b-17b--|
bb|--12---------------------------------------------------------|
gb|-------------------------------------------------------------|
db|-------------------------------------------------------------|
ab|-------------------------------------------------------------|
eb|-------------------------------------------------------------|


eb|-17b--17b--17b--0--------0---------------------------------|
bb|----------------0--------0---------------------------------|
gb|----------------1--------1---------------------------------|
db|-------------------2--2--2----2--2---7-7-7-7-7--2*---------|
ab|-------------------2--2--2----2--2---5-4-4-5-4-------------|
eb|-------------------0--0--0----0--0-------------------------|
                     p  p       p  p


repeats 4x but no 2* on the last one
eb|--------------------------|
bb|--------------------------|
gb|--------------------------|
db|------7-7---7-7-7--2*-----|
ab|------5-4---4-5-4---------|
eb|-0--0-----0---------------|
    p  p     p


eb|--0--------3--------0--------2----|
bb|--0--------3--------2--------3----|
gb|--1--------0--------2--------2----|
db|--2--------0--------2--------0----|
ab|--2--------2--------0-------------|
eb|--0--------3----------------------|


eb|--0--------3--------0---------------------|
bb|--0--------3--------2---------------------|
gb|--1--------0--------2--------7--7--7------|
db|--2--------0--------2--------7--7--7------|
ab|--2--------2--------0--------5--5--5--5~--|
eb|--0--------3------------------------------|


eb|-------------------------------------|
bb|-------------------------------------|
gb|-------------------------------------|
db|--------9-7-----7--------9-7-----7---|
ab|--------7\5-----4/5------7\5-----4/5-|
eb|-0--00-------0------0-00------0------|
   p  pp       p      p pp      p

eb|-------------------------------------|
bb|-------------------------------------|
gb|-------------------------------------|
db|------9---7---7---7---7-7---7-7-7----|
ab|------7---5---4---5---4-5---5-4-5----|
eb|-0-00---0---0---0---0----------------|
   p pp   p   p   p   p


eb|--3-----0--------------------------------------------|
bb|--3-----2--------------------------------------------|
gb|--0-----2----------9--------7---------9---------7----|
db|--0-----2----------9--------7---------9---------7----|
ab|--2-----0----------7--------5---------7---------5----|
eb|--3---------0--00----0--00-----0--00-----0--00-------|


eb|------------------------------------10-------------------------|
bb|-------------------8~---8-7-----10b----10r--10-8---8-----------|
gb|-9p7h9~---9-7---------------7--------------------9---9-7--7-9--|
db|--------------9-7-------------9-------------------------9------|
ab|---------------------------------------------------------------|
eb|---------------------------------------------------------------|

i havent figured out the whole solo yet.... honestly i cant go that fast
so ill figure it out and add it in later. but if you really want just
e-mail me and ill send you what i have so far.
Suggest correction
What's this?
You can suggest a correction to this tab. Community and Mods will review your correction and vote to approve or reject it.
comments
print report bad tab
guest
You may want to rate the tab now too:
select rating
Please do not post tabs as comments. Select "correction" instead!