Oops, an error
Loading. Please wait.

Better Guitar Pro

version 2
version 2

Whole song

Interactive

32,933 views 18 this week
11 commentsread comments
1 2 3 4 5
accurate
x 15
add to favorites
guitar tuner
Autoscroll
slow
fast
+/-
esc
set tempo
stop
Help us to improve Ultimate-Guitar.com Take our survey!
×
Author
Filesize
Instruments
76 Kb
rhythm guitar, lead guitar #1, lead guitar #2, bass, percussion, vocal
"Better"
demo version
Play now

or get full version for Free

Get full version now!
To learn and play this song
in Tab Pro, start free trial
Start free trial

or get $10 off Welcome Bonus

Get welcome bonus
Get access to Tab Pro version of “Better”!
Tab Pro is a premium guitar tab service, available on PC, Mac, iOS and Android
START FREE TRIAL
Your download will start in 7 seconds
×
Enter for a chance to win a FREE lesson from The Doors’ guitarist Robby Krieger plus other great prizes!
To download “Better” Guitar Pro tab click button below
Please note that you must have Guitar Pro software installed on your
computer in order to view this file.
comments
report bad tab
11 comments total. Showing first comments.
-1 reply
Gbell3587 416 wrote on April 11 2007, 05:14 am

Good tab, the best one ive seen yet. The only thing is the intro and outro - they didnt sound quite right. I thought it was like:

E||--14--16--14--16--14--16--14----|--16--17--16--14----16--14--12--|
B||--14--14--14--14--14--14--14----|--14------14--14----14--14--14--|
G||--------------------------------|--------------------------------|
D||--------------------------------|--------------------------------|
A||--------------------------------|--------------------------------|
E||--------------------------------|--------------------------------|

I might be wrong, in any case good work!

+3 reply
russ2681 230 wrote on April 11 2007, 06:12 am

Excellent tab! Keep up the great work

0 reply
Matty22 394 wrote on April 15 2007, 09:25 pm

Correction for the chorus

At the part where it goes:
eb----------------------|
bb----------------------|
gb--10--9--10--9--7--9--|
Db----------------------|
Ab---8--7---8--7--5--7--|
Eb----------------------|

It should go:

eb----------------------|
bb----------------------|
gb--10--9--10--7--5--7--|
Db----------------------|
Ab---8--7---8--5--3--5--|
Eb----------------------|

And some of the fills are wrong

guest
You may want to rate the tab now too:
select rating
Please do not post tabs as comments. Select "correction" instead!