Oops, an error
Loading. Please wait.

Chinese Democracy tab

version 7
536 views 1 this week
no commentswrite comment
1 2 3 4 5
2 more votes to show rating
add to favorites
×
Save as Personal and add changes to this tab that will be seen only by you. Learn more ›
×
You can save this tab as Personal to edit and correct it or add notes. All changes will be seen only by you. Learn more »
launch autoscroll
font size
0
reset
how to read this tab
guitar tuner
backing track
0:00
0:00
edit
Autoscroll
slow
fast
+/-
esc
set tempo
stop
I've noticed there're a lot of tabs for this song and I don't think any one of them has
the whole song right. Like one will have one part right, another will have another right
and so on, so I thought I'd fuse them all together along with what I thought sounded 
right by ear for all to enjoy.

(Saw them live in Nashville. AMAZING!)

Chinese Democracy – Guns N’ Roses

Soft Intro
e|------------------------------------------------------------------|
B|-------6-------8--------6---------------6-------8-------5---------|
G|-----7---7---7--------7---7-----------7---7---7-------5---5-----5-|
D|---9-------9--------9-------9-5-----9-------9-------5-------5-----|
A|-5----------------5-------------5-5---------------3-----------5---|
D|------------------------------------------------------------------|

e|------------------------------------------------------------------|
B|-------6-------8--------6---------------6-------8-8-8-8-8-8-8-8-8-|
G|-----7---7---7--------7---7-----------7---7---7---7-7-7-7-7-7-7-7-|
D|---9-------9--------9-------9-5-----9-------9---------------------|
A|-5----------------5-------------5-5-------------------------------|
D|------------------------------------------------------------------|

Heavy Intro
e|------------------------------------------------------------------|
B|------------------------------------------------------------------|
G|------------------------------------------------------------------|
D|-0-0---3-3/5-5-5------0-0---3-3/5-5-5-----0-0-x-x-3-3/5-5-5-x-6-6-|
A|----------------------------------------------x-x-----------x-----|
D|-0-0---3-3/5-5-5------0-0---3-3/5-5-5-----0-0-x-x-3-3/5-5-5-x-6-6-|

e|------------------------------------------------------------------|
B|------------------------------------------------------------------|
G|------------------------------------------------------------------|
D|-0-0-x-x-3-3/5-5-5-x-6-6-0-0-x-x-3-3/5-5-5-6-6--5-5--6-6--5-5--6-6|
A|-----x-x-----------x---------x-x----------------------------------|
D|-0-0-x-x-3-3/5-5-5-x-6-6-0-0-x-x-3-3/5-5-5-6-6--5-5--6-6--5-5--6-6|

Verse
“It don’t really matter…” and “If they were missionaries…”
e|------------------------------------------------------------------|
B|------------------------------------------------------------------|
G|------------------------------------------------------------------|
D|-0-0--3-3--5-5--6-6-----------------------------------------------|
A|-0-0--3-3--5-5--6-6-----------------------------------------------|
D|-0-0--3-3--5-5--6-6-----------------------------------------------|

Chorus
“All they’ve got to rule a nation…”
e|------------------------------------------------------------------|
B|------------------------------------------------------------------|
G|---------3-3-3-3-5-5-5-5---------------------------------3--------|
D|-0-0-0-0-3-3-3-3-5-5-5-5-3-------2-2-2-2-2-2-2-2-3-3-3-3-3--------|
A|-0-0-0-0-1-1-1-1-3-3-3-3-3-------2-2-2-2-2-2-2-2-3-3-3-3-1--------|
D|-0-0-0-0-----------------3-------2-2-2-2-2-2-2-2-3-3-3-3----------|

Pre-solo

e|-13brp10----10----13-10-------------10----------------------------|
B|---------13----13-------13brp-10-13----13-10-13-10----------------|
G|---------------------------------------------------12-10-12brp-10-|
D|------------------------------------------------------------------|
A|------------------------------------------------------------------|
D|------------------------------------------------------------------|


e|-13b-8-12-8----8-12-8---8-12-8----8-12-8---10-12-10-8-------------|
B|------------10--------10-------10--------10-----------------------|
G|------------------------------------------------------------------|
D|------------------------------------------------------------------|
A|------------------------------------------------------------------|
D|------------------------------------------------------------------|

e|-13brp10----10----13-10-------------10----------------------------|
B|---------13----13-------13brp-10-13----13-10-13-10----------------|
G|---------------------------------------------------12-10-12brp-10-|
D|------------------------------------------------------------------|
A|------------------------------------------------------------------|
D|------------------------------------------------------------------|

Solo
e|-15b-15----14---14b---14br--8-----8----10-10-----15brbr---15---14-|
B|-------------------------------10---10-------10-------------------|
G|------------------------------------------------------------------|
D|------------------------------------------------------------------|
A|------------------------------------------------------------------|
D|------------------------------------------------------------------|

e|-10--8--8--------8-10-14--10-10----8/14-10----8-10-8-22-----------|
B|-------------------------------------------10---------------------|
G|------------------------------------------------------------------|
D|------------------------------------------------------------------|
A|------------------------------------------------------------------|
D|------------------------------------------------------------------|

This part uses a whammy pedal on the notes on the e string. the '3b' uses some other
effect, not sure what it's called, i just tremolo pick it.
e|---------5---------5---------3b----------5---------5---------10---|
B|-2h3p2h3---2h3p2h3---2h3p2h3-----2h3p2h3---2h3p2h3---2h3p2h3------|
G|------------------------------------------------------------------|
D|------------------------------------------------------------------|
A|------------------------------------------------------------------|
D|------------------------------------------------------------------|

e|-22---------------------------------------------------------------|
B|--------10-8-6-0-6-8-10-8-6-0-6-8---------------------------------|
G|----------------------------------10-8-7-0-7-8-10-8-7-0-7-8-------|
D|------------------------------------------------------------------|
A|------------------------------------------------------------------|
D|------------------------------------------------------------------|

e|----------10-10---5/17--8/20--10/22-----13-10-8-10-8-10-8-10----8-|
B|-----10hb----13b---------------------------------------------12---|
G|-7hb--------------------------------------------------------------|
D|------------------------------------------------------------------|
A|------------------------------------------------------------------|
D|------------------------------------------------------------------|

e|------------------------------------------------------------------|
B|-12-10-8-10-8-10-8-10---------------------------------------------|
G|----------------------10-8-10-8-10-8-7----------------------------|
D|------------------------------------------------------------------|
A|------------------------------------------------------------------|
D|------------------------------------------------------------------|

End
“And you’re out of time.”
e|------------------------------------------------------------------|
B|------------------------------------------------------------------|
G|------------------3-----------------------------------------------|
D|------------------3-----------------------------------------------|
A|------------------1-----------------------------------------------|
D|------------------------------------------------------------------|

            
            
Suggest correction
Creating personal tab
Creating personal tab
You can edit any tab online and save it as your Personal.

You can edit, replace or remove any tab part or add personal notes – all changes will be seen only by you.

Personal tabs can be accessed anytime from any device, even offline.
Learn more »
Give kudos to tab author, rate the tab!
1 2 3 4 5
comments
print report bad tab
guest
You may want to rate the tab now too:
select rating
Wanna post a correction for this tab? Suggest correction