Oops, an error
Loading. Please wait.

Crash Diet Tab

version 1
version 1

Whole song

Interactive

5,061 views 6 this week
3 commentsread comments
1 2 3 4 5
x 8
add to favorites
launch autoscroll
font size
0
reset
how to read this tab
guitar tuner
×
Best way to learn
"Crash Diet"
Autoscroll
slow
fast
+/-
esc
set tempo
stop
Author
-------------------------------------------------------------------------------
                             Guns N' Roses - Crash Diet
-------------------------------------------------------------------------------
Tabbed by:Rockaholic
Email:Kristian_Tjelle@hotmail.com

Tuning:Eb

Intro

e|---------------------------------------------------------|
B|---------------------------------------------------------|
G|------0-------0---------0--------0-----------------------|
D|----4---4---4---4-----2---2----2---2---------------------|
A|--7-------5-------5-4--------3-------3-------------------|
E|---------------------------------------------------------| X4



Verse (With overdrive)

e|---------------------------------------------------------|
B|---------------------------------------------------------|
G|------0-------0---------0--------0-----------------------|
D|----4---4---4---4-----2---2----2---2---------------------|
A|--7-------5-------5-4--------3-------3-------------------|
E|---------------------------------------------------------| 
  PM-----------------PM----------------PM       



Chorus


e|----------------------------------------------------|
B|----------------------------------------------------|
G|-----9----------------------------------------------|
D|-----9--9-10--5--10--10--10--9--7--5--9-------------|
A|-----7--9-10--5--10--10--10--9--7--5--9-------------|
E|-0-0----7-8---3--8---8---8---7--5--3--7-------------|
   PM                  PM-----------PM


e|----------------------------------------------------|
B|----------------------------------------------------|
G|-----9----------------------------------------------|
D|-----9--9-10--5--10--10--10--9--7--5--9-------------|
A|-----7--9-10--5--10--10--10--9--7--5--9-------------|
E|-0-0----7-8---3--8---8---8---7--5--3--7-------------|
   PM                  PM-----------PM


e|------------------------|
B|------------------------|
G|------------------------|
D|--9-9-9-10-3------------|
A|--9-9-9-10-3------------|
E|--7-7-7-8--5------------|
    PM-PM



Solo

e|-----------------------------------------------------------------|
B|-----------------------------------------------------------------|
G|------9-----7------5------4-----------9-----7-------5-----4------|
D|------9-----7------5------4-----------9-----7-------5-----4------|
A|------7-----5------3------2-----------7-----5-------3-----2------|
E|--0-0---0-0----0-0----0-0---0-0-0-0-0---0-0----0-0----0-0--------|
    PM-------------------------PM--------------------------PM




PM-----------PM=Palm muting, the line shows where you shall start and where to quit
palm muting.


That's pretty much the whole song. The solo in itself I wasn't able to tab out so you'll
have to settle with the rhythm guitar part there.
Very underestimated song, should undoubtedly have been on one of the "Illusion" albums.
Suggest correction
comments
print report bad tab
3 comments total.
0 reply
bucketheadShred 106 Jul 09, 2009 12:42 PM

You got that main riff right but the chorus is a little bit of and theres no solo, so ill give it a 4.

0 reply
Moving Pictures 10 Sep 04, 2009 02:25 PM

Chorus:
|----------------------|------------------------|
|----------------------|------------------------|
|-----9-----4-5--------|-xx5-5-xx5-4--------7---|
|-----9-----4-5---5----|-xx5-5-xx5-4---5----7---|
|-----7-----2-3---5----|-xx3-3-xx3-2---5----5---|
|-0-0-------------3----|---------------3--------|
Add palm mutes where needed.

0 reply
yoface.355 10 May 03, 2017 10:38 PM

I Want To Know The Solo, not The Rhythm 2 It.

But Still, You Did Pretty Good. Nice Job.

guest
You may want to rate the tab now too:
select rating
Wanna post a correction for this tab? Suggest correction