Oops, an error
Loading. Please wait.

I Dont Care About You Tab

version 2
version 2

Whole song

Interactive

2,751 views 1 this week
no commentswrite comment
1 2 3 4 5
excellent!
x 5
add to favorites
launch autoscroll
font size
0
reset
how to read this tab
guitar tuner
Autoscroll
slow
fast
+/-
esc
set tempo
stop
Help us to improve Ultimate-Guitar.com Take our survey!
×
Author
I tabbed this out by ear so I don't know if its right or not, but I think it sounds 
perfect.


Standard Tuning

  Intro
e|--------------------------------------------------------------------------|
b|--------------------------------------------------------------------------|
g|--------6--6-6-6-6-6-6-6-6-6-6-6-6-6-6--------6-6-6-6-6-6-6-6-6-6-6-6-6-6-|
d|-/9~-4~-6--6-6-6-6-6-6-6-6-6-6-6-6-6-6--9~-4~-4-4-4-4-4-4-4-4-4-4-4-4-4-4-|
a|-/9~-4~-4--4-4-4-4-4-4-4-4-4-4-4-4-4-4--9~-4~-4-4-4-4-4-4-4-4-4-4-4-4-4-4-|
E|-/7~-2~---------------------------------7~-2~-----------------------------|

  Verse
    \/ /\ \/ /\ \/ /\ \/ /\ \/      3x
e|------------------------------------|-------------------------------------|
b|------------------------------------|-------------------------------------|
g|-----------------------------6-6-6--|-------------------------------------|
d|--6-6-6-6-6-6-6-6-6-6-6-6-6--6-6-6--|-6-6-6-6-6-6-6-6-6-6-6-6-6-6-6-6-----|
a|--6-6-6-6-6-6-6-6-6-6-6-6-6--4-4-4--|-6-6-6-6-6-6-6-6-6-6-6-6-6-6-6-6-----|
E|--4-4-4-4-4-4-4-4-4-4-4-4-4---------|-4-4-4-4-4-4-4-4-4-4-4-4-4-4-4-4-----|

  Chorus*                                                    2x
e|-------------------------------------------------------------|
b|-------------------------------------------------------------|
g|------------------------------6-6-6-6-6-6-6-6-6-6-6-6-6-6-6-6|
d|--9-9--9-9-9-9--4-4--4-4-4-4--6-6-6-6-6-6-6-6-6-6-6-6-6-6-6-6|
a|--9-9--9-9-9-9--4-4--4-4-4-4--4-4-4-4-4-4-4-4-4-4-4-4-4-4-4-4|
E|--7-7--7-7-7-7--2-2--2-2-2-2---------------------------------|

  Outro
e|---------------------------------------------------------------|
b|---------------------------------------------------------------|
g|------------------------------6-6-6-6-6-6-6-6-6-6-6-6-6-6-6-6--|
d|--9-9--9-9-9-9--4-4--4-4-4-4--6-6-6-6-6-6-6-6-6-6-6-6-6-6-6-6--|
a|--9-9--9-9-9-9--4-4--4-4-4-4--4-4-4-4-4-4-4-4-4-4-4-4-4-4-4-4--|
E|--7-7--7-7-7-7--2-2--2-2-2-2-----------------------------------|

e|---------------------------------------------------------------|
b|---------------------------------------------------------------|
g|------------------------------6~~~~~~~~~~~---------------6\----|
d|--9-9--9-9-9-9--4-4--4-4-4-4--6~~~~~~~~~~~---------------6\----|
a|--9-9--9-9-9-9--4-4--4-4-4-4--4~~~~~~~~~~~---------------4\----|
E|--7-7--7-7-7-7--2-2--2-2-2-2-----------------------------------|

I haven't figured out the lead part at the end of the outro yet so until then, Enjoy!

* The first two chords of the chorus I think are strummed only once, but if
your only playing guitar it sounds better if you strum the pattern in the tab.

Tablature Legend

/= slide on
\= slide off
~= ring out

/\ \/= up & down strumming
Suggest correction
What's this?
You can suggest a correction to this tab. Community and Mods will review your correction and vote to approve or reject it.
comments
print report bad tab
guest
You may want to rate the tab now too:
select rating
Please do not post tabs as comments. Select "correction" instead!