Oops, an error
Loading. Please wait.

Its So Easy Bass

version 2
version 2
16,166 views 12 this week
3 commentsread comments
1 2 3 4 5
x 11
add to favorites
launch autoscroll
font size
0
reset
guitar tuner
backing track
0:00
0:00
×
Best way to learn
"Its So Easy"
Autoscroll
slow
fast
+/-
esc
set tempo
stop
Author
Tuning
  follow
D A D G
Its So Easy by Guns N Roses

Drop D tuning

G|-------------------------------------------|
D|--12h14--14--14--14--12h14--14--14--12h14--|
A|-------------------------------------------|
D|-------------------------------------------|
                                            
G|-------------------------------------------|
D|--14--14--12h14--14--12h14--14--12h14--14--|
A|-------------------------------------------|
D|-------------------------------------------|
                                            
G|-------------------------------------------|
D|--12h14--14--14--14--12h14--14--14--12h14--|
A|-------------------------------------------|
D|-------------------------------------------|
                                           
G|-------------------------------------------|
D|--14--14--12h14--14--12h14--14--12h14--14--|
A|-------------------------------------------|
D|-------------------------------------------|
                                            
G|-------------------------------------------|
D|--12h14--14--14--14--12h14--14--14--12h14--|
A|-------------------------------------------|
D|-------------------------------------------|
                                           
G|-------------------------------------------|
D|--14--14--12h14--14--12h14--14--12h14--14--|
A|-------------------------------------------|
D|-------------------------------------------|
                                                                              
G|-----------------------------------------|
D|-12h14--14--14--14--12h14--14-14--12h14--|
A|-----------------------------------------|
D|-----------------------------------------|

G|--------------------------------|
D|--14--14--14--12--14--12--------|
A|--------------------------14----|
D|------------------------------0-|
                                                     3x
Verse
G|-------------------------|--------------------------||
D|*------------------------|-------------------------*||
A|*------------------------|----7--7-----5--7--7-----*||
D|---6----6--0--3--3----0--|----------7-----------0---||

  Chorus                                                     3x
G|--------------------------|--------------------------||
D|*-------------------------|-------------------------*||
A|*-------------------------|----7--7-----5--7--7-----*||
D|---5--5--3--5--6----6--0--|----------7-----------0---||

  Verse                                                    3x
G|-------------------------|--------------------------||
D|*------------------------|-------------------------*||
A|*------------------------|----7--7-----5--7--7-----*||
D|---6----6--0--3--3----0--|----------7-----------0---||

  Chorus                                                     3x                     
G|--------------------------|--------------------------||--------------------|
D|*-------------------------|-------------------------*||*-------------------|
A|*-------------------------|----7--7-----5--7--7-----*||*-------------------|
D|---5--5--3--5--6----6--0--|----------7-----------0---||---2----------------|
                                                             
G|-------------------|-------------------|--------------------||
D|-------------------|-------------------|-------------------*||
A|-------------------|--2----------------|--0----------------*||
D|--3----------------|-------------------|--------------------||
                                                                     
G|----------------------|----------------------|----------------------|
D|----------------------|----------------------|----------------------|
A|--7----7----7----7----|--7----7----7----7----|--7----7----7----7----|
D|----------------------|----------------------|----------------------|
                                                      
G|--------------------------||--------------------------|
D|--------------------------||*-------------------------|
A|--7--7--7--5--7--5--------||*--5----5--4--5-----------|
D|--------------------7--0--||-----------------3--2--0--|
                       
                        3x   Solo
G|-------------------------||------------------------|------------------------|
D|------------------------*||------------------------|------------------------|
A|----7-------5--7--7-----*||------------------------|----7--7-----5--7--7----|
D|---------7-----------0---||--6----6--0--3--3----0--|----------7-----------0-|
                                                                            
G|------------------------|-------------------------|------------------------|
D|------------------------|-------------------------|------------------------|
A|------------------------|----7--7-----5--7--7-----|------------------------|
D|--6----6--0--3--3----0--|----------7-----------0--|--6----6--0--3--3----0--|
                                                                             
G|-------------------------|------------------------|-------------------------|
D|-------------------------|------------------------|-------------------------|
A|----7--7-----5--7--7-----|------------------------|----7--7-----5--7--7-----|
D|----------7-----------0--|--6----6--0--3--3----0--|----------7-----------0--|

                                                      3x
G|-------------------------|--------------------------||
D|*------------------------|-------------------------*||
A|*------------------------|----7--7-----5--7--7-----*||
D|---6----6--0--3--3----0--|----------7-----------0---||

                                                       3x                     
G|--------------------------|--------------------------||--------------------|
D|*-------------------------|-------------------------*||*-------------------|
A|*-------------------------|----7--7-----5--7--7-----*||*-------------------|
D|---5--5--3--5--6----6--0--|----------7-----------0---||---2----------------|
                                                              
G|-------------------|-------------------|--------------------||
D|-------------------|-------------------|-------------------*||
A|-------------------|--2----------------|--0----------------*||
D|--3----------------|-------------------|--------------------||
                                                                  
G|----------------------|---------------------|---------------------|
D|*---------------------|---------------------|---------------------|
A|*---------------------|---------------------|--2------2--2--------|
D|---2------2--2--------|--3------3--3--------|---------------------|
                        
                           Solo 2 during Chorus
G|----------------------||------------------------|-------------------------|
D|---------------------*||------------------------|-------------------------|
A|---------------------*||------------------------|----7--7-----5--7--7-----|
D|--5------5--5---------||--6----6--0--3--3----0--|----------7-----------0--|
                                                                           
G|------------------------|-------------------------|------------------------|
D|------------------------|-------------------------|------------------------|
A|------------------------|----7--7-----5--7--7-----|------------------------|
D|--6----6--0--3--3----0--|----------7-----------0--|--6----6--0--3--3----0--|
                                                                             
G|-------------------------|------------------------|-------------------------|
D|-------------------------|------------------------|-------------------------|
A|----7--7-----5--7--7-----|------------------------|----7--7-----5--7--7-----|
D|----------7-----------0--|--6----6--0--3--3----0--|----------7-----------0--|
                                                                           
G|------------------------|-------------------------|------------------------|
D|------------------------|-------------------------|------------------------|
A|------------------------|----7--7-----5--7--7-----|------------------------|
D|--6----6--0--3--3----0--|----------7-----------0--|--6----6--0--3--3----0--|
                                                                            
G|-------------------------|------------------------|-------------------------|
D|-------------------------|------------------------|-------------------------|
A|----7--7-----5--7--7-----|------------------------|----7--7-----5--7--7-----|
D|----------7-----------0--|--6----6--0--3--3----0--|----------7-----------0--|
                                                                                
G|-----------------------|------------------------||-------------------------|
D|-----------------------|------------------------||*-8--7--5----------------|
A|-----------------------|---7--7-----5--7--7-----||*----------7-------------|
D|--6----6--0--3--3----0-|---------7-----------0--||--------------6--5--3--0-|

                            2x                                               
G|--------------------------||--------------------------|------------------||
D|-------------------------*||--8--7--5-----------------|------------------||
A|----7--7--0--5--7--7-----*||-----------7-----------7--|------------------||
D|----------------------0---||--------------6--5--3--0--|------------------||
Suggest correction
comments
print report bad tab
3 comments total.
+1 reply
KasanDude 100 Jan 26, 2009 07:55 AM

I'm thinking that this isn't your original tab, and is incorrectly tabbed from somewhere. Because 1) DGCF isn't "drop D" and this song isn't even in drop D, so i can't see what you're getting at. Also, that little riff you play a the end of each E:--6--6--3--3---0--0-0-0 isn't played EVERY SINGLE time. I believe its played the second to last time before the song goes into the "It's so easy, everybody's trying to please me, baby" part. There are a bunch of other fills and I daresay you're missing quite a bit of the fills (almost all of them). Regards.

0 reply
TimeForTickles 10 Jan 07, 2012 12:28 PM

DGCF is drop D standard or standard a whole step down #just sayin

0 reply
hereticfive 31 Mar 13, 2012 11:31 AM

missing fills get your own tab youre pathetic

guest
You may want to rate the tab now too:
select rating
Wanna post a correction for this tab? Suggest correction