Oops, an error
Loading. Please wait.

Knockin On Heavens Door Tab

63,739 views 3 this week
1 commentread comment
1 2 3 4 5
please rate
add to favorites
launch autoscroll
font size
0
reset
how to read this tab
guitar tuner
Tab Pro tools
  • play this tab
  • loop segment
  • change instrument
  • show fretboard
  • metronome
×
Best way to learn
"Knockin On Heavens Door"
Autoscroll
slow
fast
+/-
esc
set tempo
stop
Contributor
the tuning is Eb, Ab, Db, Gb, Bb,Eb
key= fb= full bend  h=Hammer on
     p= pull off
     v= vibrato
     hb= half bend
     s= slide
Solo 2
Eb------------------------12-15-14hb--------14v---14hb--14p12--------15--------|
Bb-------------13---13------------------------------------------15fb---15fb----|
Gb---------------12------------------------------------------------------------|
Db-----------------------------------------------------------------------------|
Ab-----------------------------------------------------------------------------|
Eb-----------------------------------------------------------------------------|

Eb---15-----------------------15------------------15---------------------------|
Bb------15fb---13--15-----------15-----------15v----15--15fb-15fb--------------|
Gb----------------------14fb-------14fb--12--14v-------14----14---12v----------|
Db-----------------------------------------------------------------------------|
Ab-----------------------------------------------------------------------------|
Eb-----------------------------------------------------------------------------|

Eb-------15---17fb-17hb-15-17--15-20-19-20-20fb-20-19-20-20fb--20-19-20-22fb-|
Bb-----15--15----------------------------------------------------------------|
Gb--s16----------------------------------------------------------------------|
Db---------------------------------------------------------------------------|
Ab---------------------------------------------------------------------------|
Eb---------------------------------------------------------------------------|

Eb-22fb--22--------22----------------------------------------15v--------------|
Bb----------20-22fb---22fb--20-22-22hb--20-22-20----19hb--------19v--19hb--17-|
Gb----------------------------------------------------------------------------|
Db----------------------------------------------------------------------------|
Ab----------------------------------------------------------------------------|
Eb----------------------------------------------------------------------------|

Eb--------------15-------15------------------------------------------------|
Bb---19p-17-17v----17-------17p--15-----15---------------------------------|
Gb-----------------------------------17-----16hb-16hb---12---11v---11hb-9--|v
Db-------------------------------------------------------------------------|
Ab-------------------------------------------------------------------------|
Eb-------------------------------------------------------------------------|

Eb-------------------------------------------------------------------------|
Bb-------------------------------------------------------------------------|
Gb--s7---5p-4--------------------------------------------------------------|
Db--------------5----------------------------------------------------------|
Ab-------------------------------------------------------------------------|
Eb-------------------------------------------------------------------------|


that's it, if anyone has any questions dont be afraid to ask, thanks!!!
the tuning for this it is one semi-tone down from standard.
comments
We did not receive enough feedback on this tab! Please rate:
print report bad tab
1 2 3 4 5
1 comment total.
0 reply
Anton1997 wrote on February 23 2011, 11:18 am

On the very first note you take it should be :

Relesase = R
Bb-13r-12--13r--12-------| On one string. Then

Eb--15-14b-14b-14-14b-14-12------------|

glad to help!

I want to post or [tab]
guest
You may want to rate the tab now too:
select rating
Please do not post tabs as comments. Select "correction" instead!