Oops, an error
Loading. Please wait.

Locomotive Tab

version 1
version 1

Whole song

23,889 views 57 this week
7 commentsread comments
1 2 3 4 5
x 12
add to favorites
launch autoscroll
font size
0
reset
how to read this tab
guitar tuner
Autoscroll
slow
fast
+/-
esc
set tempo
stop
Help us to improve Ultimate-Guitar.com Take our survey!
×
[Intro]
e|-------------------|-------------------------|--------------------------|
B|-------------------|-------------------------|--------------------------|
G|-------------------|-------------------------|--------------------------|
D|-------------------|-------------------------|--------------------------|
A|-0-0---0-0---0-0---|-0---0-0---0-0-0---0-----|-0---0-0---0-0-0---0-0----|
E|-----3-----3-----2-|---2-----2-------2---3-5-|---3-----3-------0-----2--|

e|--------------------------|-------------------------|-------------------|
B|--------------------------|-------------------------|-------------------|
G|------------------------5-|-2-----------------------|-------------------|
D|------------------------5-|-2-----------------------|-------------------|
A|-0---0-0---0-0-0---0------|---0-0-0---0-0-0---0-----|0---0-0---0-0------|
E|---2-----2-------2---3----|---------3-------3---0-2-|--2-----2-----3-2-0|

e|-------------------|-----|-----|----------------------------------------|
B|-------------------|-----|-----|----------------------------------------|
G|-7h9--7h9-7---7--9-|-----|-----|-9--7h9---------------------------------|
D|-7h9--7h9-7---7--9-|--s--|--s--|-9--7h9---5----5------------------------|
A|-7----7---7---7--7-|-----|-----|-7--7-----5----5------------------------|
E|-------------------|-----|-----|----------3----3------------------------|

(rhy.fig.1)
e|----------------------------------------------------------------|---|---|
B|----------------------------------------------------------------|---|---|
G|----------------------------------------------------------------|-%-|-%-|
D|----------------------------------------------------------------|---|---|
A|------0-----0-----0-----0-----------0-----0-----0-----0---------|---|---|
E|--3fb---3-5---3-5---3-5---0-3-0-3-5---3-5---3-5---3-5---0-0-3-0-|---|---|

[Verse]
(w/rhy.fig.1)

[Interlude 1]
e|-------------------------------------------------5-----5---5---------|
B|-----------------------------------------------5-5-5-8---8---8-7-8-7-|
G|-------------------------------------5-6---5h6-----------------------|
D|-------------------------5---7---5h7-----7---------------------------|
A|-----3-------3h4---3-5/7---7---7-------------------------------------|
E|-3h5---5-5-5-----x---------------------------------------------------|

e|-----------------------------------------------------------------------------|
B|-8p7\6-6-5h6p5\4-5--5-4-3-4-3------------------------------------------------|
G|------------------------------5---7---5--------------5h7p5-------------------|
D|--------------------------------7---7----7-5-7hb-5---------7p5---------------|
A|---------------------------------------------------7-----------7-5-3---------|
E|---------------------------------------------------------------------5-3-5~~-|

[Chorus]
    A5                                 A5
e|------------------------------------------------------------------------|
B|------------------------------------------------------------------------|
G|------------------------------------------------------------------------|
D|------------------------------------------------------------------------|
A|------------------------------------------------------------------------|
E|-5-5~~~------------------0-3-5-5-3---5-5~~~-------------------0-3-5-5-3-|
 my baby's got a locomotive        my baby's gone off the track 

     A5                                      A5
e|-----------------------------------------------------------------------|
B|-----------------------------------------------------------------------|
G|-----------------------------------------------------------------------|
D|-----------------------------------------------------------------------|
A|-----------------------------------------------------------------------|
E|-----5-5~~~------------------0-3-5-5-3-5-5~~~~----------------0-3-5-5--|
   my baby's got a locomotive got ta peel the bitch off my back 

 D5 A5  D5     A5     N.C.      D5 A5   D5 A5 N.C.    D5    A5   D5 
   I  know it  looks like   i'm insane                  take a closer 
 A5   N.C.     D5  A5   C5
look i'm   not to blame

[Interlude 1]
e|-------------------------------------------------5-----5---5---------|
B|-----------------------------------------------5-5-5-8---8---8-7-8-7-|
G|-------------------------------------5-6---5h6-----------------------|
D|-------------------------5---7---5h7-----7---------------------------|
A|-----3-------3h4---3-5/7---7---7-------------------------------------|
E|-3h5---5-5-5-----x---------------------------------------------------|

e|-----------------------------------------------------------------------------|
B|-8p7\6-6-5h6p5\4-5--5-4-3-4-3------------------------------------------------|
G|------------------------------5---7---5--------------5h7p5-------------------|
D|--------------------------------7---7----7-5-7hb-5---------7p5---------------|
A|---------------------------------------------------7-----------7-5-3---------|
E|---------------------------------------------------------------------5-3-5~~-|

[Interlude 2]
e|--------------------------------------------------7--------8-7------|
B|--------------------7---------8--7----7--10-8-7-----10-7-------10-7-|
G|-8-7-------9-8-7-------9-7---------9------------9--------9----------|
D|-----10-7--------10--------10---------------------------------------|
A|--------------------------------------------------------------------|
E|--------------------------------------------------------------------|

e|-7---8-------------15----17----17-20-17----20----17-20-17----17------17-|
B|---7---10-17-15-------17----20----------20----20----------20----20fb----|
G|----------------17------------------------------------------------------|
D|------------------------------------------------------------------------|
A|------------------------------------------------------------------------|
E|------------------------------------------------------------------------|

e|-17-----------------------------------------------------------------|
B|----20-17----17-20-17-----------------------------------------------|
G|----------19----------17fbr-15----17-15-----------------------------|
D|-------------------------------17-------17-15-----------------------|
A|--------------------------------------------------------------------|
E|--------------------------------------------------------------------|

[Interlude 3]
e|----------------------------------------------------------------------------|
B|----------------------------------------------------------------------------|
G|-17p16p14-----------17p16p14-----------17p16p14-----------17p16p14----------|
D|----------17p16p14-----------17p16p14-----------17p16p14-----------17p16p14-|
A|----------------------------------------------------------------------------|
E|----------------------------------------------------------------------------|

e|-----------------------------------------------------------------------------------------------|
B|----14-----------------------------------------------------------------------------------------|
G|-17----14-17-14----14------14----14------------------------------15-------14----15-------14----|
D|----------------17----17fb----17----17-14-17-14-17------17-14-17----14-17----17----14-17----14-|
A|---------------------------------------------------17fb----------------------------------------|
E|-----------------------------------------------------------------------------------------------|

e|---------------------------------------------------------------------------------------|
B|----16h17---17----17-------17----------------------------------------------------------|
G|---------17----17----17-17----17-16-17-16-17p16--14----16\14-14-12-14--(14)~~~~-(14)\2-|
D|-17-------------------------------------------------16---------------------------------|
A|---------------------------------------------------------------------------------------|
E|---------------------------------------------------------------------------------------|

[Guitar Solo]
e|-------------------------------------------------------------------------------------|
B|-----5---5-----------5---5-----------8---5-----5-----5-----5-----5-----------5---5---|
G|-7fb---7---5-----7fb---7---5-----7fb---7---7fb---7fb---7fb---7fb---5-----7fb---7---5-|
D|-------------7-5-------------7-5-------------------------------------7-5-------------|
A|-------------------------------------------------------------------------------------|
E|-------------------------------------------------------------------------------------|

e|--------------------------5----5---5----------------------------------------|
B|-----7hbrp5---5-------8fb---r8---8---8-5-8---5-----5----5~~-7-5-7-5-7-7-5-7-|
G|------------7---5--------------------------8---7-8---7--5---7-5-7-5-7-7-5-7-|
D|-7-5--------------7-5-----------------------------------5---7-5-7-5-7-7-5-7-|
A|----------------------------------------------------------------------------|
E|----------------------------------------------------------------------------|

e|------------------------------------------------------------------------|
B|------5-7-5h7p5---7---5h7p5---------------------------------------------|
G|-5----5-7-5h7p5---7---5h7p5---------------------------------------------|
D|---7--5-7-5h7p5-7---7-------5-7-5h7-5---7---5-7---5-7-5-5-5---7---7-5---|
A|----------------------------5-7-5h7---7-7-7-5-7-7-5-7-5-7---7-7-7-5-7-7-|
E|------------------------------------------------------------------------|

e|------------------------------10--7------7~~~-7--------------------------|
B|------------------------------10----10fb--------9-8-7rhb-----------------|
G|----------------------7-9fb-9----------------------------9~~~-9-7--------|
D|---------------6hb~~~----------------------------------------------9-8-7-|
A|-------------------------------------------------------------------------|
E|-5fb~~~-8fb~~~-----------------------------------------------------------|

e|-------------------------------------------------------------------------------|
B|------------------/14-14-x-x-13-12-12-x-x-11-10-9-8-7-7p5-----5-(5)~~~------x/-|
G|------------------/14-14-x-x-13-12-12-x-x-11-10-9-8-7-7p5-----5-(5)~~~------x/-|
D|------7---------------------------------------------------7-7----------/14\----|
A|-10-7---10/11~~~---------------------------------------------------------------|
E|-------------------------------------------------------------------------------|
Suggest correction
comments
print report bad tab
7 comments total. Showing first comments.
0 reply
slashsnakepit15 10 Jun 21, 2004 12:00 AM

damn good job if you did it by ear, but if you copied the book ur a ***, but anyways this is pretty close and if you can actually play this you get props anyways

0 reply
DukeReno 10 Mar 26, 2005 12:00 AM

GREAT ***ING JOB!!!

+1 reply
#_TheTaWaVeS_# 31 Aug 05, 2006 03:54 PM

who can play this

guest
You may want to rate the tab now too:
select rating
Wanna post a correction for this tab? Suggest correction