Oops, an error
Loading. Please wait.

Mama Kin Tab

version 2
version 2

Whole song

Interactive

5,187 views 12 this week
5 commentsread comments
1 2 3 4 5
accurate
x 9
add to favorites
launch autoscroll
font size
0
reset
how to read this tab
guitar tuner
Autoscroll
slow
fast
+/-
esc
set tempo
stop
Help us to improve Ultimate-Guitar.com Take our survey!
×
Author
rayIII 1,912
Guns N' Roses
"Mama Kin"
From the 1988 Album GN'R Lies

GtrI = EADGBe
       (Slash)

Intro/Verse/Chorus/Main Riff

Upbeat

|--------------|--------------|-----------------|-------------------|
|--------------|--------------|-----------------|-------------------|
|--------------|--------------|-----------------|-------------------|
|-9--9-x-7h9---|--------------|-----------------|-------------------|
|-7--7-x-7-7-x-|-9--9-x-7h9-x-|-7--7-9-7-10-7-9-|--2--2-4-2-5-2-4-2-|
|------------x-|-7--7-x-7-7-x-|-5--5-5-5-5--5-5-|--0--0-0-0-0-0-0-0-|


Pre-Chorus

|---------------|---------------|    |-----------------|-----------------|
|---------------|---------------|    |-----------------|-----------------|
|---------------|---------------|    |-2-2-2-2-2-2-2-2-|-2-2-2-2-2-2-2-2-|
|---------------|-2-2-4-2-5-2-4-| X3 |-4-4-4-4-4-4-4-4-|-4-4-4-4-4-4-4-4-|
|-2-2-4-2-5-2-4-|-0-0-0-0-0-0-0-|    |-4-4-4-4-4-4-4-4-|-4-4-4-4-4-4-4-4-|
|-0-0-0-0-0-0-0-|---------------|    |-2-2-2-2-2-2-2-2-|-2-2-2-2-2-2-2-2-|

Solo
|-17--------17--------17--------17-17--------17--------17--------17--------17---------|
|----20p17-----20p17-----20p17--------20p17-----20p17-----20p17-----20p17-----20p17---|
|-------------------------------------------------------------------------------------|
|-------------------------------------------------------------------------------------|
|-------------------------------------------------------------------------------------|
|-------------------------------------------------------------------------------------|

|------------------------------------------------------------------------------17----20~~~|
|-17h20p17----17h20p17----17h20p17----17------------------------------------17----17-19~~~|
|----------20----------20----------20----20p19-17----19p17h18-19-17h18-17h18--------------|
|-------------------------------------------------19--------------------------------------|
|-----------------------------------------------------------------------------------------|
|-----------------------------------------------------------------------------------------|

Don't Forget To Rate!
Suggest correction new What's this?
You can suggest a correction to this tab. Community and Mods will review your correction and vote to approve or reject it.
comments
print report bad tab
5 comments total. Showing first comments.
+1 reply
wangmaster 923 wrote on December 17 2006, 06:03 am

nice, but wouldnt this be better?

|--------------|--------------|-----------------|-------------------|
|--------------|--------------|-----------------|-------------------|
|--------------|--------------|-----------------|-------------------|
|-9--9-x-7h9---|--------------|-2--2-4-2-5-2-4-2|-------------------|
|-7--7-x-7-7-x-|-9--9-x-7h9-x-|-0--0-0-0-0-0-0-0|--2--2-4-2-5-2-4-2-|
|------------x-|-7--7-x-7-7-x-|-----------------|--0--0-0-0-0-0-0-0-|

0 reply
rayIII 1,912 wrote on December 17 2006, 06:47 pm

yeah that works too

0 reply
wangmaster 923 wrote on February 20 2007, 04:34 pm

yeah man, great tabage!

guest
You may want to rate the tab now too:
select rating
Please do not post tabs as comments. Select "correction" instead!