Oops, an error
Loading. Please wait.

My Michelle Tab

version 1
version 1

Intro

Interactive

19,861 views 3 this week
12 commentsread comments
1 2 3 4 5
worth learning
x 18
add to favorites
launch autoscroll
font size
0
reset
how to read this tab
guitar tuner
Tab Pro tools
  • play this tab
  • loop segment
  • change instrument
  • show fretboard
  • metronome
×
Best way to learn
"My Michelle"
Autoscroll
slow
fast
+/-
esc
set tempo
stop
My Michelle Intro
Guns N' Roses
Appitite for Destruction
Tabbed by Randy Pfau
paintballer92@hotmail.com

That intro for thoes other tabs were driving me crazy and were no where near
what the song sounds like... heres the correct tabs.

|--------------------------------------------------------------------|
|--------0-----------------------------------------------------------|
|------0---0-----------0--2------0--2-------0-------------0----------|
|----0-------0---0---0---------0----------2---2---2-----2---2---2----|
|--2-----------2---1---------0----------2-------2-----2-------2------|
|-------------------------------------0-------------0----------------|

Have Fun!
comments
print report bad tab
12 comments total. Showing first comments.
0 reply
rollingaerofan wrote on May 3 2003, 12:00 am

graet job on this, man. it does sound way better.

guns n roses forever...

CONNOR

0 reply
rhysh wrote on August 12 2003, 12:00 am

your intro is right but it is played a tone down the fret board starting with 4 2 2 2, etc.

0 reply
MrRight wrote on September 15 2004, 12:00 am

this aint right either, its somethin like:

|---------------------------------|
|--------1---------------0--------|
|------1---1-----------1----------|
|----1-------1---1---1------------|
|--3-----------3---2--------------|
|---------------------------------|

I want to post or [tab]
guest
You may want to rate the tab now too:
select rating
Please do not post tabs as comments. Select "correction" instead!