Oops, an error
Loading. Please wait.

My Michelle bass

version 3
version 3

Whole song

  • The current versions are incorrect in serveral pla... Show more

Interactive

172 views 3 this week
no commentswrite comment
1 2 3 4 5
1 last vote to show rating
add to favorites
×
Save as Personal and add changes to this tab that will be seen only by you. Learn more ›
×
You can save this tab as Personal to edit and correct it or add notes. All changes will be seen only by you. Learn more »
launch autoscroll
font size
0
reset
guitar tuner
backing track
0:00
0:00
edit
Autoscroll
slow
fast
+/-
esc
set tempo
stop
About this tab version
The current versions are incorrect in serveral places (missing fills or actual parts of the music) and not well spaced out. Was this info helpful? Yes No
Guns N Roses: My Michelle
Beginning of Guitar Intro
Intro
|-18~~---------17~--16~----------------------------------|
|-------------------------16~------------------------16\-|
|--------------------------------------------------------|
|--------------------------------------------------------|

|-6~---9--8--6--5~---6--5--4------------------------4--5-|
|-----------------------------4~-------------------------|
|--------------------------------------------------------|
|--------------------------------------0--2~-------------|

|-6~---9--8--6--5~---6--5--4-----------------------------|
|-----------------------------4~-------------------------|
|--------------------------------------------------------|
|--------------------------------------------------------|
                             
|----------------------------------------|
|----------------------------------------|
|-4~--4-4-3~--2~-------------------------|3x
|----------------2--2--2-0-0-5~-5~-0~-2--|

|----------------------------------------|
|----------------4~----------------------|
|-4~--4-4-3~--2~-------------------------|
|----------------------------------------|

Verse
|----------------------------------------|
|----------------------------------------|
|-4~--4-4-3~--2~-------------------------|
|----------------2--2--2-0-0-5~-5~-0~-2--|

|----------------------------------------|
|----------------------------------------|
|-4~--4-4-3~--2~--4--4--4--5-4~----------|
|----------------------------------------|

|----------------------------------------|
|----------------------------------------|
|-4~--4-4-3~--2~-------------------------|
|----------------2--2--2-0-0-5~-5~-0~-2--|

|----------------------------------------|
|----------------------------------------|
|-4~--4-4-3~--2~--0----------------------|
|--------------------2--2--0--2~---------|

Chorus
|-------------------4-----4--------------------2-----2-|
|------------------------------------------------------|
|-5--5--7--7--2--2----2-2----4--4--7--7--0--0----0-0---|
|------------------------------------------------------|

|-------------------------------------------------|
|-------------------------------------------------|
|-5~-5-5-4~-4-4-2~-2-2----------------------------|
|----------------------5--4--5~-------5-----------|

Post Chorus
|----------------------------------------|
|----------------------------------------|
|-4~--4-4-3~--2~-------------------------|
|----------------2--2--2-0-0-5~-5~-0~-2--|

|----------------------------------------|
|----------------4~----------------------|
|-4~--4-4-3~--2~-------------------------|
|----------------------------------------|

Repeat: Verse

Chorus 2
|-------------------4-----4--------------------2-----2-|
|------------------------------------------------------|
|-5--5--7--7--2--2----2-2----4--4--7--7--0--0----0-0---|
|------------------------------------------------------|

|-------------------------------------------------------------|
|-------------------------------------------------------------|
|-5~-5-5-4~-4-4-2~-2-2----------------------------------------|
|----------------------5--4--5~-5-5-5-5-5-5-5-5-5-5-5-5-5-5-5-|

|-------------------4-----4----------------------------|
|----------------------------------------------4-----4-|
|-5--5--7--7--2--2----2-2----4--4--7--7----------------|
|----------------------------------------2--2----2-2---|

|-------------------------------------------------------------|
|---------------------------------------------7~--7~--7~--7~--|
|-5~-5-5-4~-4-4-2~-2-2----------------------------------------|
|----------------------5--4--5~-5-5-5-5-5-5-5-----------------|

Bridge
|-----------------------------------------------------------|
|-------------------------------------------------------2\--|
|-7--7--5--5--0~-0-0-0-0-0-0-0-2--2-------------------------|
|------------------------------------3--3--0~-0-0-0-0-0-----|

|--------------------------------------------------1-1-2-2-3-3-|
|----------------------------------1-1-2-2-3-3-4-4-------------|
|-7--7--5--5--0~-0-0-0-0-0-0-0-2-2-----------------------------|
|--------------------------------------------------------------|

|-----------------------------------------------------------|
|-------------------------------------------------------2\--|
|-7--7--5--5--0~-0-0-0-0-0-0-0-2--2-------------------------|
|------------------------------------3--3--0~-0-0-0-0-0-----|

|--------------------------------------------------------------|
|--------------------------------------------------------------|
|-7--7--5~----0~-0-0-0-0-0-0-0-2-2-2-2-2-2-2-2-2-2-2-2-2-2-2-2-|
|--------------------------------------------------------------|

Repeat: Post-Chorus

Solo                             
|-------------------------------------------------|
|-------------0~----------------------------------|
|-2--2--2-2-2-----0~-2~-----------------------0~--|4x
|------------------------3--3--3--3--3--3--3------|

Repeat: Verse

Final Chorus
|------------------------------------------------2-----2-|
|--------------------------------------------------------|
|-5--5--7--7--2~-2-2-2-2-2-2-2-4--4--7--7--0--0----0-0---|
|--------------------------------------------------------|

|-------------------------------------------------------------|
|-------------------------------------------------------------|
|-5~-5-5-4~-4-4-2~-2-2----------------------------------------|
|----------------------5--4--5~-5-5-5-5-5-5-5-5-5-5-5-5-5-5-5-|

|-----------------------------------------------------------|
|-----------------------------------------------------------|
|-5--5--7--7--2~-2-2-2-2-2-2-2-4--4--7--7-------------------|
|------------------------------------------2~-2-2-2-2-2-2-2-|

|-7-7-7-7-6-6-6-6-4-4-4-4-2~-1-2~-2-2-2-2-2-2-2-2-2-0-0---------|
|-------------------------------------------------------2-2-0-0-|
|---------------------------------------------------------------|
|---------------------------------------------------------------|

Outro                          
|------------------------------|
|------------------------------|
|---------------------------3~-|3x
|-4-5-5-5-4-5-5-5-4-5-5-5-5----|

|-----------------------------------------------------|
|-----------------------------------------------------|
|---------------------------3-------------------------|
|-4-5-5-5-4-5-5-5-4-5-5-5-5------------------------5--|

            
            
Suggest correction
Creating personal tab
Creating personal tab
You can edit any tab online and save it as your Personal.

You can edit, replace or remove any tab part or add personal notes – all changes will be seen only by you.

Personal tabs can be accessed anytime from any device, even offline.
Learn more »
Give kudos to tab author, rate the tab!
1 2 3 4 5
comments
print report bad tab
guest
You may want to rate the tab now too:
select rating
Wanna post a correction for this tab? Suggest correction