Oops, an error
Loading. Please wait.

New Rose Tab

version 2
version 2

Whole song

Interactive

6,636 views 24 this week
no commentswrite comment
1 2 3 4 5
excellent!
x 7
add to favorites
launch autoscroll
font size
0
reset
how to read this tab
guitar tuner
Autoscroll
slow
fast
+/-
esc
set tempo
stop
Help us to improve Ultimate-Guitar.com Take our survey!
×
Author
----------------------------------------------------------------------------
                             NEW ROSE - GUNS N'ROSES                       
-----------------------------------------------------------------------------
Tabbed by: mr. ...
Email: dra.warren@yahoo.com

Tuning: standard

INTRO:

guitar 1:
e|-------------------------------------------------------------------------|
B|-------------------------------------------------------------------------|
G|---6--6-6------------8-8-8-----------------------------------------------|
D|---6--6-6---8--8-8---8-8-8---6--6-6-6------------------------------------|
A|---4--4-4---8--8-8---6-6-6---6--6-6-6------------------------------------|
E|------------6--6-6-----------4--4-4-4------------------------------------|

guitar 2:
e|-------------------------------------------------------------------------|
B|-------------------------------------------------------------------------|
G|-------------------------------------------------------------------------|
D|--------------------------------x-x-x------------------------------------|
A|--------------------------------x-x-x------------------------------------|
E|--------------------------------x-x-x------------------------------------|

both guitars:
e|----------------------------------------|
B|----------------------------------------| (x3)
G|---6--6-6------------8-8-8--------------|
D|---6--6-6---8--8-8---8-8-8---6--6-6-6---|
A|---4--4-4---8--8-8---6-6-6---6--6-6-6---|
E|------------6--6-6-----------4--4-4-4---|

e|---x---|
B|---x---|
G|---x---|
D|-------|
A|-------|
E|-------|

e|----------------------------------------|
B|----------------------------------------| (x4)
G|-10-10--12--8--8-8--8-8-8-8-8-8-8-8-----|
D|-10-10--12--8--8-8--8-8-8-8-8-8-8-8-----|
A|--8--8--10--6--6-6--5-6-6-6-5-6-6-6-----|
E|----------------------------------------|

e|-------------------------------------------------------------------------|
B|-------------------------------------------------------------------------|
G|---8-8-6-4--4444444444444444---------------------------------------------|
D|---8-8-6-4--4444444444444444--7-6-6666666666666666-----------------------|
A|---6-6-4-2--2222222222222222--7-6-6666666666666666-----------------------|
E|------------------------------5-4-4444444444444444-----------------------|

e|-------------------------------------------------------------------------|
B|-------------------------------------------------------------------------|
G|---------4444444444444444------------------------------------------------|
D|--6-6-7--4444444444444444--7-6-6666666666666666--------------------------|
A|--6-6-7--2222222222222222--7-6-6666666666666666--------------------------|
E|--4-4-5--------------------5-4-4444444444444444--------------------------|

e|----------------------------------------|
B|----------------------------------------| (x4)
G|-10-10--12--8--8-8--8-8-8-8-8-8-8-8-----|
D|-10-10--12--8--8-8--8-8-8-8-8-8-8-8-----|
A|--8--8--10--6--6-6--5-6-6-6-5-6-6-6-----|
E|----------------------------------------|

e|-------------------------------------------------------------------------|
B|-------------------------------------------------------------------------|
G|---8-8-6-4--4444444444444444---------------------------------------------|
D|---8-8-6-4--4444444444444444--7-6-6666666666666666-----------------------|
A|---6-6-4-2--2222222222222222--7-6-6666666666666666-----------------------|
E|------------------------------5-4-4444444444444444-----------------------|

e|-------------------------------------------------------------------------|
B|-------------------------------------------------------------------------|
G|---------4444444444444444------------------------------------------------|
D|--6-6-7--4444444444444444--7-6-6666666666666666--------------------------|
A|--6-6-7--2222222222222222--7-6-6666666666666666--------------------------|
E|--4-4-5--------------------5-4-4444444444444444--------------------------|

e|----------------------------------------|
B|----------------------------------------| (x6)
G|-10-10--12--8--8-8--8-8-8-8-8-8-8-8-----|
D|-10-10--12--8--8-8--8-8-8-8-8-8-8-8-----|
A|--8--8--10--6--6-6--5-6-6-6-5-6-6-6-----|
E|----------------------------------------|

e|----------------------------------------|
B|----------------------------------------| (x4)
G|----------------------------------------|
D|--6-666666-8-888888--10--101010101010---|
A|--6-666666-8-888888--10--101010101010---|
E|--4-444444-6-666666---8---8-8-8-8-8-8---|

guitar 1:
e|-------------------------------------------------------------------------|
B|-------------------------------------------------------------------------|
G|---6--6-6------------8-8-8-----------------------------------------------|
D|---6--6-6---8--8-8---8-8-8---6--6-6-6------------------------------------|
A|---4--4-4---8--8-8---6-6-6---6--6-6-6------------------------------------|
E|------------6--6-6-----------4--4-4-4------------------------------------|

guitar 2:
e|-------------------------------------------------------------------------|
B|-------------------------------------------------------------------------|
G|-------------------------------------------------------------------------|
D|--------------------------------x-x-x------------------------------------|
A|--------------------------------x-x-x------------------------------------|
E|--------------------------------x-x-x------------------------------------|

both guitars:
e|----------------------------------------|
B|----------------------------------------| (x3)
G|---6--6-6------------8-8-8--------------|
D|---6--6-6---8--8-8---8-8-8---6--6-6-6---|
A|---4--4-4---8--8-8---6-6-6---6--6-6-6---|
E|------------6--6-6-----------4--4-4-4---|

e|---x---|
B|---x---|
G|---x---|
D|-------|
A|-------|
E|-------|

e|----------------------------------------|
B|----------------------------------------| (x4)
G|-10-10--12--8--8-8--8-8-8-8-8-8-8-8-----|
D|-10-10--12--8--8-8--8-8-8-8-8-8-8-8-----|
A|--8--8--10--6--6-6--5-6-6-6-5-6-6-6-----|
E|----------------------------------------|

e|-------------------------------------------------------------------------|
B|-------------------------------------------------------------------------|
G|---8-8-6-4--4444444444444444---------------------------------------------|
D|---8-8-6-4--4444444444444444--7-6-6666666666666666-----------------------|
A|---6-6-4-2--2222222222222222--7-6-6666666666666666-----------------------|
E|------------------------------5-4-4444444444444444-----------------------|

e|-------------------------------------------------------------------------|
B|-------------------------------------------------------------------------|
G|---------4444444444444444------------------------------------------------|
D|--6-6-7--4444444444444444--7-6-6666666666666666--------------------------|
A|--6-6-7--2222222222222222--7-6-6666666666666666--------------------------|
E|--4-4-5--------------------5-4-4444444444444444--------------------------|

e|----------------------------------------|
B|----------------------------------------| (x7)
G|-10-10--12--8--8-8--8-8-8-8-8-8-8-8-----|
D|-10-10--12--8--8-8--8-8-8-8-8-8-8-8-----|
A|--8--8--10--6--6-6--5-6-6-6-5-6-6-6-----|
E|----------------------------------------|

e|-------------------------------------------------------------------------|
B|-------------------------------------------------------------------------|
G|--10-10-12--8--8-8-------------------------------------------------------|
D|--10-10-12--8--8-8-------------------------------------------------------|
A|---8--8-10--5--6-6-------------------------------------------------------|
E|-------------------------------------------------------------------------|

thats it. ill add the lead part later if i have time. enjoy

Suggest correction
comments
print report bad tab
guest
You may want to rate the tab now too:
select rating
Wanna post a correction for this tab? Suggest correction