Oops, an error
Loading. Please wait.

Nightrain Tab

version 3
version 3
256,584 views 216 this week
31 commentsread comments
1 2 3 4 5
x 139
add to favorites
launch autoscroll
font size
0
reset
how to read this tab
guitar tuner
Autoscroll
slow
fast
+/-
esc
set tempo
stop
Help us to improve Ultimate-Guitar.com Take our survey!
×
Author
Tuning
D# G# C# F# A# D#
Nightrain - Guns n' Roses

Tabbed by: Tom Clark
Email: shadow51t@aol.com

Tuning: Eb Ab Db Gb Bb eb

I got most of this from a book, some of this I did, and the outro solo from Paul Bell 
so it's going to be mostly correct.

[Intro]

  Guitar 1
D#|---|------------------------------------------------------------|
A#|---|---x-8-8-7p0—7/5---3/5-5-3-3/1---1/3-3-1-1--0-1-0-----------|
F#|-2-|--------------------------------------------------2-0-2~----|
C#|-2-|------------------------------------------------------------|
G#|-0-|------------------------------------------------------------|
D#|---|------------------------------------------------------------|

D#|-----------------------------------------------------------|
A#|-x-8-8-7p0—7/5---3/5-5-3-3/1---1/3-3-1-1--0-1-0------------|
F#|------------------------------------------------2-0------2-|
C#|---------------------------------------------------------2-|
G#|---------------------------------------------------------0-|
D#|-----------------------------------------------------0-3---|
Pm                                                      . .

  Guitar 2
D#|---|----------------------------1--------------------------------|
A#|---|----8-8-7--7-5----5-5-3-3---1---------8-8--5---3-3-3---------|
F#|-2-|----9-9-7--7-5----5-5-4-4---2---/2—---7—7--5-5-4-5-4--2-0-2--|
C#|-2-|----7-7-7--7-5----5-5-5-3-----------x-5-5--5-5-5-5—5--2-0-2--|
G#|-0-|--0-------------------------------------------------------0--|
D#|---|-------------------------------------------------------------|

D#|---------------------------1---------------------------------------|
A#|---8-8-7--7-5----5-5-3-3---1--------8-8--5---3-3-3-----------------|
F#|---9-9-7--7-5----5-5-4-4---2--/2—---7—7--5-5-4-5-4--2-0-2--------2-|
C#|---7-7-7--7-5----5-5-5-3----------x-5-5--5-5-5-5—5--2-0-2--------2-|
G#|-0------------------------------------------------------0--------0-|
D#|-----------------------------------------------------------0—3-----|
Pm                                                            . .


[Verse]

D#|-------------------|-----------------------------------------------|
A#|-------------------|-----------------------------------------------|
F#|-----------------2-|--2---2-------------------------------2-----2--|
C#|-2---2-----------2-|--2---2-------------------------------2-----2--|
G#|-2---2-----------0-|--0---0------------3---b---0----------0-----0--|
D#|-0---0----0--3-----|-----------0--3-----------------0--3-----3-----|
  Pm         .  .                 .  .                 .  .     .

D#|--------------------|--------------------|
A#|--------------------|--------------------|
F#|--2---2----------2--|--2---2----------2--|
C#|--2---2----------2--|--2---2----------2--|
G#|--0---0----------0--|--0---0----------0--|
D#|----------0---3-----|----------0---3-----|
  Pm         .   .                .   .

D#|-----------------------------------------------|
A#|-----------------------------------------------|
F#|--2---2-------------------------------2-----2--|
C#|--2---2-------------------------------2-----2--|
G#|--0---0------------3---b---0----------0-----0--|
D#|-----------0--3-----------------0--3-----3-----|
  Pm          .  .                 .  .     .

D#|--------------------|--------------------|
A#|--------------------|--------------------|
F#|--2---2----------2--|--2---2----------2--|
C#|--2---2----------2--|--2---2----------2--|
G#|--0---0----------0--|--0---0----------0--|
D#|----------0---3-----|----------0---3-----|
  Pm         .   .                .   .

D#|----------------------------------------------|
A#|----------------------------------------------|
F#|--2---2------------------------------2-----2--|
C#|--2---2------------------------------2-----2--|
G#|--0---0------------3---b---0---------0-----0--|
D#|-----------0--3----------------0--3-----3-----|
  Pm          .  .                 .  .     .

D#|--------------------|--------------------|
A#|--------------------|--------------------|
F#|--2---2----------2--|--2---2----------2--|
C#|--2---2----------2--|--2---2----------2--|
G#|--0---0----------0--|--0---0----------0--|
D#|----------0---3-----|----------0---3-----|
  Pm         .   .                .   .

D#|-----------------------------2---|
A#|-----------------------------3---|
F#|------2-------2--------------2---|
C#|------2-------2--------------0---|
G#|--0--—0-------0------------------|
D#|------------------0----3---------|


[Fill 1]
  (This is not exactly what Slash plays in the song, but if you play something along these 
  it'll sound fine)
D#|---------------------------------|
A#|-7/8--7—-7/5—-5/3-5—3/1-1--------|
F#|---------------------------2-0-2-|
C#|---------------------------2-0-2-|
G#|-------------------------------0-|
D#|---------------------------------|


[Verse 2]

D#|-------------------|
A#|-------------------|
F#|-----------------2-|
C#|-2---2-----------2-|
G#|-2---2-----------0-|
D#|-0---0----0--3-----|
  Pm         .  .

D#|----------------------------------------------|
A#|----------------------------------------------|
F#|--2---2------------------------------2-----2--|
C#|--2---2------------------------------2-----2--|
G#|--0---0------------3---b---0---------0-----0--|
D#|-----------0--3----------------0--3-----3-----|
  Pm          .  .                 .  .     .

D#|--------------------|--------------------|
A#|--------------------|--------------------|
F#|--2---2----------2--|--2---2----------2--|
C#|--2---2----------2--|--2---2----------2--|
G#|--0---0----------0--|--0---0----------0--|
D#|----------0---3-----|----------0---3-----|
  Pm         .   .                .   .

D#|-----------------------------2---|
A#|-----------------------------3---|
F#|------2-------2--------------2---|
C#|------2-------2--------------0---|
G#|--0--—0-------0------------------|
D#|------------------0----3---------|

D#|---------------------------------------------------------------------------|
A#|8-8-7p0—7/5--3/5-5-3-3/1--1/3-3-1-1--0-1-0---------------------------------|
F#|-------------------------------------------2-0---------------------------2-|
C#|-----------------------------------------------5-5-5-5-5-5-5-5-5-5-5-----2-|
G#|-----------------------------------------------5-5-5-5-5-5-5-5-5-5-5-----0-|
D#|-----------------------------------------------3-3-3-3-3-3-3-3-3-3-3--0—3--|
  Pm                                                . . . . . . . . . .  . .


[Chorus]

D#|-------------------|
A#|-------------------|
F#|--2----------------|
C#|--2----------------|   x5
G#|--0--—0-3-0-3-0----|
D#|-----------------3-|

D#|------------------------------------------------------|
A#|------------------------------------------------------|
F#|-2-----------------------------------------------2----|
C#|-2-----------------------------------------------2----|
G#|-0—---0-3-0-3-0--------0-3-0-3-0----3-2-3-2-0----0----|
D#|-----------------3--1-------------3------------3------|

D#|-------------------|
A#|-------------------|
F#|--2----------------|
C#|--2----------------|   x5
G#|--0--—0-3-0-3-0----|
D#|-----------------3-|

D#|-------------------------------------|
A#|-------------------2-----------------|
F#|--2----------------3-x/////////////--|
C#|--2----------------0-x/////////////--|
G#|--0--—0-3-0-3-0-0--------------------|
D#|-------------------------------------|


[Solo]

D#|---------------7--7--------------------------------------------------------|
A#|-7----7------7—7--7-------7------7------7-7---9b---r9b---r9b--7—-9--7—-9—7~|
F#|---9b---9b-------------9b-----9b----9b--------9b---r9b---r9b-—7--9—-7--9—7~|
C#|---------------------------------------------------------------------------|
G#|---------------------------------------------------------------------------|
D#|---------------------------------------------------------------------------|

D#|---10-—9---7-----------------------------|
A#|--------------10—-9---7------------------|
F#|------------------------9-9b---p7-7—9-7--|
C#|-----------------------------------------|
G#|-----------------------------------------|
D#|-----------------------------------------|

D#|---------------------------------------------|
A#|---------------------------------------------|
F#|---------------------------------------------|
C#|-9—-7-—9/7—-7/6-—6/4—-4/2—-2--0—-4—-5-—6--7--|
G#|---------------------------------4—-5—-6—-7--|
D#|---------------------------------2—-3—-4--5--|

D#|-10---------------------10--10---------------|
A#|-10--------10--10---10--10--10---10-----10---|
F#|-9b—--9b---9b-—r9---7—--9b-—9b---9b-----7----|
C#|---------------------------------------------|
G#|---------------------------------------------|
D#|---------------------------------------------|

D#|------------9--12----------------------------------10--10-----------10—-13b|
A#|--------10---------12b—10—12-12b--10---------------10--10-----------10—-12b|
F#|----11--------------------------------11-—11---11---------12-10h11---------|
C#|---------------------------------------------------------------------------|
G#|---------------------------------------------------------------------------|
D#|---------------------------------------------------------------------------|

D#|-10---------------------|-----14-------------------------------------------|
A#|-10---------------------|-17b----17—14-------------------------------------|
F#|-----12b—r10-12-10-11-0-|--------------16br-p14---16p14--------------------|
C#|------------------------|-----------------------16------16-14--------------|
G#|------------------------|-------------------------------------16-14p13---12|
D#|------------------------|----------------------------------------------xx--|

D#|---------------------------------------------------------------------------|
A#|7--7---6-/-7----7---6-/-7—7-----7-/-9---/10/--9---9-/-7---5---4-/-2--------|
F#|x--x---x-/------x---x-----x-----x-/-x---/x-/------x---x---x---x-/-x---4--b-|
C#|7--7---6---7----7---6---7-7-----7-/-9---/11/—-9---9-/-7---6---4-/-2--------|
G#|---------------------------------------------------------------------------|
D#|---------------------------------------------------------------------------|

D#|----4----5-----------------------------------------------------------|
A#|------------5b---r--2---5--------------------------------------------|
F#|---------------------------4b—r-2-4-2-4b—4p2-------------------------|
C#|---------------------------------------------4-2b—rb--rb-------------|
G#|---------------------------------------------------------------------|
D#|----------------------------------------------------------0---1---2--|
 Pm                                                          .   .

D#|-------------------0---0---1---2------2-0-2-1-0----------------|
A#|-------------------0---0---1---2------2-0-2-1-0----------------|
F#|---------------------------------------------------------------|
C#|-------------------------------------------------------------0-|
G#|-------------------------------------------------------------0-|
D#|-x--2--1--0------x--------------------------------------12/----|
 Pm    .  .

  (With a slide)
D#|--------------------------|
A#|-7/////////10/////////14--|
F#|-7/////////10/////////14--|
C#|-7/////////10/////////14--|
G#|--------------------------|
D#|--------------------------|

D#|---------------------|---------------|
A#|--8--8-7---7-x-x-7/5-|---------------|
F#|--9--9-7---7-x-x-7/5-|------------5--|
C#|--7--7-7---7-x-x-7/5-|------------7--|
G#|---------0-----------|---------------|
D#|---------------------|----------0----|

D#|----------------------|-------------3-|
A#|----------------------|-------------3-|
F#|---4-x-x-4-x-x-x---10-|---------x-x-0-|
C#|---5-x-x-5-x-x-x---10-|---------x-x-0-|
G#|-----------------8--8-|---------------|
D#|----------------------|-------------3-|

D#|-----------------|--------------|
A#|---5-----5-------|--------------|
F#|---5-----5---4-5-|---4---2--0---|
C#|---5-----5---5-5-|---5---2--0---|
G#|-----x-x---------|--------------|
D#|-----x-x---3-----|--------------|


[Final Chorus]

D#|--------------|-------------|-----------------|----------------|
A#|--------------|-------------|-----------------|----------------|
F#|----------2---|-------------|-2-------------2-|----------------|
C#|--------------|-------------|-2-------------2-|----------------|
G#|--------------|-------------|-0-0-3-0-3-0---0-|--0-3-0-3-0-----|
D#|--------------|-------------|-------------3---|------------3-1-|

D#|----------------|----------------|
A#|----------------|----------------|
F#|----------------|----------------|
C#|----------------|----------------|
G#|----3-2-3-2-0---|----3-2-3-2-0---|
D#|--1-----------1-|--1-----------3-|

D#|----------------|----------------|
A#|----------------|----------------|
F#|----------------|--------------2-|
C#|----------------|--------------2-|
G#|----3-2-3-2-0---|----3-2-3-2---0-|
D#|--3-----------3-|--3---------3---|


[Outro Solo]

D#|-----------------|---------------------|
A#|-----------------|---------------------|
F#|-----------------|-------------------2-|
C#|-----------------|---------------------|
G#|-------------3-5-|--5br-3-5-5b-3---0---|
D#|--3-----5--5-----|---------------------|

D#|------------------|-----------------|
A#|------------------|-----------------|
F#|----2-2-2-2-2b====|=r-----------2---|
C#|------------------|-----------------|
G#|------------------|-----------------|
D#|------------------|-----------------|

D#|-----------------|----------------|
A#|-----------------|----------------|
F#|-------2-2-2b====|=r---2----5-5-4-|
C#|-----------------|----------------|
G#|-----------------|----------------|
D#|-----------------|----------------|

D#|----------------|------------------|
A#|----------------|------------------|
F#|----4-4-4-4-4/7-|----7---7/5-5/9b==|
C#|----------------|------------------|
G#|----------------|------------------|
D#|----------------|------------------|

D#|----------------------------|---------------------------|
A#|----------------------------|---------------------------|
F#|-r-----9b==r-9----9-11p9----|--9--------------------7b==|
C#|---------------12--------12-|-----12p10-----------------|
G#|----------------------------|-----------12--------------|
D#|----------------------------|---------------------------|

D#|---------------------|--------------------|
A#|-----------------8b==|=-------r-----------|
F#|-r---7-7br==-5-------|--------------7b9===|
C#|---------------------|--------------------|
G#|---------------------|--------------------|
D#|---------------------|--------------------|

D#|---------------------|------8-------8------|
A#|-----------------8b==|=r---8b==-r----------|
F#|-r---7---7---5-------|-----------------7b==|
C#|---------------------|---------------------|
G#|---------------------|---------------------|
D#|---------------------|---------------------|

D#|----------------------|--------5---------------|
A#|------------------5b==|=r---8-5----------------|
F#|-r---7---7---5--------|--------------7b-7p5----|
C#|----------------------|--------------------7---|
G#|----------------------|------------------------|
D#|----------------------|------------------------|

D#|----------------|----------------------------|
A#|----------------|----------------------------|
F#|----------------|------------------------7b==|
C#|--5-------------|----------------------------|
G#|----7-6-5-3-5-3-|--5b-5p3---5b==r------------|
D#|----------------|---------5------------------|

D#|----------------|-----5-8-----------|
A#|------------8b==|=-------r-----8b==-|
F#|-r------5-------|-------------------|
C#|----------------|-------------------|
G#|----------------|-------------------|
D#|----------------|-------------------|

D#|----------8-------------|------x-8---10---|
A#|----r-8b-----8br-5-10b==|=---r------------|
F#|------------------------|-----------------|
C#|------------------------|-----------------|
G#|------------------------|-----------------|
D#|------------------------|-----------------|

D#|-------------------------|----------------------------------|
A#|-10b---10b---10br-8-13b==|=r---13b==r---13-12-13-12h13p12p==|
F#|-------------------------|----------------------------------|
C#|-------------------------|----------------------------------|
G#|-------------------------|----------------------------------|
D#|-------------------------|----------------------------------|

D#|---------------------------------------------------|
A#|-10-----12----10h12p10----10-------10--------------|
F#|-----12----12----------12----12b----12-9-----------|
C#|-------------------------------------------12br-10-|
G#|---------------------------------------------------|
D#|---------------------------------------------------|

D#|--------------------------------------|----------------------|
A#|--------------------------------------|----------------------|
F#|--------------------------------------|----------------------|
C#|-----12----10-------------------------|----------------------|
G#|-12-----12----12p10----10-------------|----------------------|
D#|--------------------12----10/8---10b==|=r-8-3b====r-5------5-|

D#|----------------------|---------------------------|
A#|----------------------|---------------------------|
F#|----------------------|------------------7------9-|
C#|----------------------|----7-10-9h10p9p7---10-----|
G#|--5b7-5p3-5-5-3-5---8-|---------------------------|
D#|----------------------|---------------------------|

D#|-------------------------------------------|
A#|---------------------------------------10h=|
F#|-----7---9-10/12---9h10p9----9-10-12-------|
C#|-10-----------------------12---------------|
G#|-------------------------------------------|
D#|-------------------------------------------|

D#|---------------------10----12------10-12---13-|
A#|-12p10----10-12-13------13------13------------|
F#|-------12-------------------------------------|
C#|----------------------------------------------|
G#|----------------------------------------------|
D#|----------------------------------------------|

D#|-12h13p12p10----10---13br==---13b==r-13-|-12--13-12h13p12p10-12---10-13---|
A#|-------------13-------------------------|---------------------------------|
F#|----------------------------------------|---------------------------------|
C#|----------------------------------------|---------------------------------|
G#|----------------------------------------|---------------------------------|
D#|----------------------------------------|---------------------------------|

D#|-12h13p12p10-12/10p8----10----7h8h10p8p7-8------|
A#|---------------------10----10--------------12b==|
F#|------------------------------------------------|
C#|------------------------------------------------|
G#|------------------------------------------------|
D#|------------------------------------------------|

D#|-------------------|--------------10--------------|
A#|-r-12---12---10-10-|----10-13b==r------13p10h13b==|
F#|-------------------|------------------------------|
C#|-------------------|------------------------------|
G#|-------------------|------------------------------|
D#|-------------------|------------------------------|

D#|---------12---15---15---|---------------------------------15-|
A#|-r----------------------|-15b-15p13-15-12br==-10/------------|
F#|------------------------|------------------------------------|
C#|------------------------|------------------------------------|
G#|------------------------|------------------------------------|
D#|------------------------|------------------------------------|

D#|------12---------------|
A#|------------16---15----|
F#|-----------------------|
C#|-----------------------|
G#|-----------------------|
D#|-----------------------|

D#|-----12-15-13h15p13p12----13----12h13p12----12-------12-|
A#|-15b-------------------15----15----------15----13-15----|
F#|--------------------------------------------------------|
C#|--------------------------------------------------------|
G#|--------------------------------------------------------|
D#|--------------------------------------------------------|

D#|---------------------------------------------------|
A#|-15p13-15p13-12----13----12h13p12----12-13-15-15b==|
F#|----------------14----14----------14---------------|
C#|---------------------------------------------------|
G#|---------------------------------------------------|
D#|---------------------------------------------------|

D#|---------15----------|
A#|-r------15b==r-------|
F#|---------------------|
C#|---------------------|
G#|---------------------|
D#|---------------------|


************************************

| x   Dead note
| h   Hammer-on
| p   Pull-off
| r   Release
| b   Bend
| br  Bend release
| /   Slide up
| ~   Vibrato

************************************
Suggest correction
comments
print report bad tab
31 comments total. Showing first comments.
0 reply
atc228 50 Jan 26, 2005 12:00 AM

excellent, best one on UG

0 reply
SLASH4PRES 72 Jan 27, 2005 12:00 AM

awesome!

0 reply
gunsngoobers 10 Feb 09, 2005 12:00 AM

cool and great name the person who sent a message before me. slash does rock and you have done well to tab out something so fast and great. welldone

guest
You may want to rate the tab now too:
select rating
Wanna post a correction for this tab? Suggest correction