Oops, an error
Loading. Please wait.
We have an official November Rain tab made by UG professional guitarists. Check out the tab »
×
81,427 views 174 this week
3 commentsread comments
1 2 3 4 5
x 16
add to favorites
×
Save as Personal and add changes to this tab that will be seen only by you. Learn more ›
×
You can save this tab as Personal to edit and correct it or add notes. All changes will be seen only by you. Learn more »
launch autoscroll
font size
0
reset
how to read this tab
guitar tuner
backing track
0:00
0:00
edit
Autoscroll
slow
fast
+/-
esc
set tempo
stop
Author
Unregistered
This is the acoustic version of november rain. If you're not familiar to this
version you can download it on napster. Its unplugged, and its kinda crappy quality.

This tab is not 100% correct, but its sounds ok. If you find any faults,
please mail them to anders_jurisoo2@hotmail.com
I took the chords from Jeremy "neighborhood guitar god"
Enjoy!

[Intro]

Gtr. 1
  E                                   C#m
Eb|-----------------|-----------------|-----------------|-----------------|
Bb|-----5---5-------|-----5---5-------|-----5---5-------|-----5-4-5-------|
Gb|---4---4---4---4-|---4---4---4---4-|---6---6---6---6-|---6-------6---6-|
Db|-6-----------6---|-6-----------6---|-------------6---|-------------6---|
Ab|-----------------|-----------------|-4---------------|-4---------------|
Eb|-----------------|-----------------|-----------------|-----------------|

Gtr. 2  (I dont know if there is two guitars at all, but the intro sounds
better with a melody line...)
Eb|---------------4-|-4-------------4-|-4---------------|-----------------|
Bb|-----------------|-----------------|-----------------|-----------------|
Gb|-----------------|-----------------|-----------------|-----------------|
Db|-----------------|-6---------------|-----------------|-----------------|
Ab|-----------------|-----------------|-4---------------|-----------------|
Eb|-----------------|-----------------|-----------------|-----------------|

Gtr. 1
  B
Eb|-----2-----------|-----------------|-----2-----------|-----------------|
Bb|-----------4-----|-5-----4-5-4-----|-----------4-----|---2---2-4-2-----|
Gb|-----------------|---4---------4---|---------------4-|-4---4-------4---|
Db|---4-----4-----4-|-----4---------4-|---4-----4---4---|---------------4-|
Ab|-2-----2-----2---|-----------------|-2-----2---------|-----------------|
Eb|-----------------|-----------------|-----------------|-----------------|

Gtr. 2
Eb|-2---------------|-----------------|-2---------------|-----------------|
Bb|-----------------|-----------------|-----------------|-----------------|
Gb|-----------------|-----------------|-----------------|-----------------|
Db|-----------------|-----------------|-----------------|-----------------|
Ab|-----------------|-----------------|-----------------|-----------------|
Eb|-----------------|-----------------|-----------------|-----------------|

Gtr. 1
  E                                     C#m
Eb|-------------------|-----------------|-----------------|-----------------|
Bb|------5---5--------|-----5---5-------|-----5---5-------|-----5-4-5-------|
Gb|----4---4---4----4-|---4---4---4---4-|---6---6---6---6-|---6-------6---6-|
Db|4/6------------6---|-6-----------6---|-------------6---|-------------6---|
Ab|-------------------|-----------------|-4---------------|-4---------------|
Eb|-------------------|-----------------|-----------------|-----------------|

Gtr. 2
Eb|-----------------4-|-4-------------4-|-4---------------|-----------------|
Bb|-------------------|-----------------|-----------------|-----------------|
Gb|-------------------|-----------------|-----------------|-----------------|
Db|-------------------|-----------------|-----------------|-----------------|
Ab|-------------------|-----------------|-----------------|-----------------|
Eb|-------------------|-----------------|-----------------|-----------------|

Gtr. 1
  B
Eb|-----2-----------|-----------------|-----2-----------|-----------------|
Bb|-----------4-----|-5-----4-5-4-----|-----------4-----|---2---2-4-2-----|
Gb|-----------------|---4---------4---|---------------4-|-4---4-------4---|
Db|---4-----4-----4-|-----4---------4-|---4-----4---4---|---------------4-|
Ab|-2-----2-----2---|-----------------|-2-----2---------|-----------------|
Eb|-----------------|-----------------|-----------------|-----------------|

Gtr. 2
Eb|-2---------------|-----------------|-2---------------|
Bb|-----------------|-----------------|-----------------|
Gb|-----------------|-----------------|-----------------|   Gtr. 2
Db|-----------------|-----------------|-----------------|   Out
Ab|-----------------|-----------------|-----------------|
Eb|-----------------|-----------------|-----------------|

Gtr. 1
  B
Eb|-----2-----------|-----------------|-----2-----------|-----------------|
Bb|-----------4-----|-5-----4-5-4-----|-----------4-----|---2---2-4-2-----|
Gb|-----------------|---4---------4---|---------------4-|-4---4-------4---|
Db|---4-----4-----4-|-----4---------4-|---4-----4---4---|---------------4-|
Ab|-2-----2-----2---|-----------------|-2-----2---------|-----------------|
Eb|-----------------|-----------------|-----------------|-----------------|

Gtr. 1
  E                                     C#m
Eb|-------------------|-----------------|-----------------|-----------------|
Bb|------5---5--------|-----5---5-------|-----5---5-------|-----5-4-5-------|
Gb|----4---4---4----4-|---4---4---4---4-|---6---6---6---6-|---6-------6---6-|
Db4/6------------6---|-6-----------6---|-------------6---|-------------6---|
Ab|-------------------|-----------------|-4---------------|-4---------------|
Eb|-------------------|-----------------|-----------------|-----------------|
            When I look.............

Gtr. 1  (keep on pickin')

[Verse]
E                     C#m
When I look into your eyes
                 B
I can see a love restrained
E                  C#m
But darlin' when I hold you
                          B
Don't you know I feel the same
E                  C#m
But darlin' when I hold you
                          B
Don't you know I feel the same
       C#m           F#
'Cause nothin' lasts forever
                            B
And we both know hearts can change
C#m                     F#
And it's hard to hold a candle
                     B
In the cold November rain
C#m                            F#
We've been through this such a long long time
                        B
Just tryin' to kill the pain
    C#m
But lovers always come and lovers always go
F#                                          B
And no one's really sure who's lettin' go today

Walking away
   C#m
If we could take the time

to lay it on the line
        F#
I could rest my head
                           B
Just knowin' that you were mine

All mine
   E              C#m
So if you want to love me
                   B
then darlin' don't refrain
E                   C#m
Or I'll just end up walkin'
                     B
In the cold November rain

****
E                 C#m                     **** This is not a part of the original
But I just end up walking                 November rain, but its the same chords as intro,
                                          The timing is not exact, but I think you can
                     B                    Figure it out ****
In the cold november rain ohhhhh

E                 C#m
 You can find me walking
B
again n' again n' again n' again n' again
E                         C#m
I know but I just keep on walkin'
B
again n' again n' again n' again n' again n' again n' again

E              C#m
If you want to love me
                   B
then darlin' don't refrain
E                   C#m
Or I'll just end up walkin'
                     B
In the cold November rain

[OUTRO] (same as intro)

            
            
Suggest correction
Creating personal tab
Creating personal tab
You can edit any tab online and save it as your Personal.

You can edit, replace or remove any tab part or add personal notes – all changes will be seen only by you.

Personal tabs can be accessed anytime from any device, even offline.
Learn more »
comments
print report bad tab
3 comments total.
0 reply
JoeBoy779 10 Jan 03, 2005 07:00 PM

^I agree

+1 reply
Creative-Noise 168 Jan 14, 2007 06:03 PM

Capo on first fret and use chords that are a half-step up for really easy strumming, if all you want to do is strum and sing. For example E would be F, C# would be D, B would be C... Just a thought, great job.

0 reply
Wouterrr007 31 Jun 17, 2007 03:24 AM

You chords rulezzz :D

guest
Wanna post a correction for this tab? Suggest correction