Oops, an error
Loading. Please wait.

November Rain Tab

version 2
167,228 views 96 this week
19 commentsread comments
1 2 3 4 5
x 31
add to favorites
launch autoscroll
font size
0
reset
how to read this tab
guitar tuner
Autoscroll
slow
fast
+/-
esc
set tempo
stop
Help us to improve Ultimate-Guitar.com Take our survey!
×
Author
Guns and roses: November Rain.
Tuning- EADGBE
Submitted by Itsme

[Intro]

   Q=78
  4/4
   Gtr I
   H     a  H      Q  E E E Q  E   Q  S S S S E E E E   Q  E E E E E E
e|------12h13----|-5------5-7--8-|-5------5-7-8-7-5---|-5------5-------|
B|---------------|-5--6-8--------|-5--6-8-----------8-|-5--6-8---8---6-|
G|---------------|-5-------------|-5------------------|-5--------------|
D|---------------|---------------|--------------------|-0----------0---|
A|---------------|-8-------------|-7------------------|----------------|
E|-1-------------|---------------|--------------------|----------------|

   Q  E E E E E E   Q  Q  Q  Q    Q  S S S S E E E E   Q  E E E E E E
e|----------------|-5--5--7--8--|------------5-------|----8-------3---|
B|-5--5-6-8-6-5-6-|-5-----------|------5-6-8---8-6-5-|-5----8---5---3-|
G|-5--------------|-5-----------|----7---------------|-5--------------|
D|-5--------------|-------------|-0------------------|-5--------------|
A|-3--------------|-8-----------|--------------------|-3------3-------|
E|----------------|-------------|--------------------|----------------|

   E E E E E E E E   Q  S S S S E E E E   Q  E E E E E E   Q  E E E E E S S
e|---0---------0---|-5------5-7-8-7-5-7-|-8--7-5---------|-5------5----------|
B|-----1---3-------|-5--6-8-------------|--------8-6-5---|-5--6-8---8---6-5--|
G|-----------------|-5------------------|--------------7-|-5-----------------|
D|-----------------|--------------------|----------------|-0----------0------|
A|-3-----3---3---3-|-8------------------|-7--------------|-------------------|
E|-----------------|--------------------|----------------|-------------------|

   Q  E E E E E E   E E E E E E E E   W          Q  Q  Q  E E   Q  Q  Q  Q
e|----8-----3-----|-----------------|----------|-5--5--5--5---|-5--5--5--5--|
B|-5----5-----3---|-5---5---3---5---|-1--------|-5--5--5--5---|-5--5--5--5--|
G|-5----5-----5---|-5---5---5---5---|-0--------|-5--5--5--5---|-5--5--5--5--|
D|-5--------------|-----------------|-2--------|--------------|-0--0--0--0--|
A|-3------3-----3-|---3---3---3---3-|-3--------|-8--8--8--8-7-|-------------|
E|----------------|-----------------|----------|--------------|-------------|

  C
  Gtr II
  W             +W             W
  |              |
  /              /
   Q  Q  Q  Q     Q  Q  Q  Q    Q  Q  Q  Q
e|-------------|--------------|-5--5--7--8--|
B|-5--5--6--6--|--5--5--3-----|-5--5--------|
G|-5--5--5--5--|--5--5--5--5--|-5--5--------|
D|-5--5--------|--------------|-------------|
A|-3--3--------|--------------|-8--8--------|
E|-------------|--------------|-------------|

                C
  W             W               +W
                |                |
                /                /
   Q  Q  Q  Q    Q  Q  E E E E    Q  Q  Q  Q
e|-5--5--5-----|---------------|---------------|
B|-5--5--5--6--|-5--5----5-6-3-|--5--5--3------|
G|-5--5--5-----|-5--5----------|--5--5--5--5---|
D|-0--0--0-----|-5--5----------|---------------|
A|-------------|-3--3--3-------|---------------|
E|-------------|---------------|---------------|

 [Verse 1]
   Q  Q  Q  E E   Q  Q  Q  Q    Q   Q    Q   Q     Q   Q  Q  Q    Q  Q  Q  Q
e|-5--5--5--5---|-5--5--5--5--|-----------------|---------------|-5--5--7--8--|
B|-5--5--5--5---|-5--5--5--5--|-5---5----6---6--|--5---5--3-----|-5--5--------|
G|-5--5--5--5---|-5--5--5--5--|-5---5----5---5--|--5---5--5--5--|-5--5--------|
D|--------------|-0--0--0--0--|-5---5-----------|---------------|-------------|
A|-8--8--8--8-7-|-------------|-3---3-----------|---------------|-8--8--------|
E|--------------|-------------|-----------------|---------------|-------------|
|
 | Gtr II
 | W              W             E E E E +H        +W              W
e|--------------|-------------|-----------------|---------------|-------------|
B|--------------|-------------|-------1-(1)-----|-(1)-----------|-------------|
G|--------------|-------------|-----0-----------|---------------|-------------|
D|--------------|-------------|---2-------------|---------------|-------------|
A|--------------|-------------|-3---------------|---------------|-------------|
E|--------------|-------------|-----------------|---------------|-------------|

                                                    [Chorus]
   Q  Q  Q  Q    Q   Q    E  E E E    Q   Q  Q  Q      W           W
e|-5--5--5-----|-------------------|---------------||-----------|-------|
B|-5--5--5--6--|-5---5-------5-6-3-|--5---5--3-----||-----------|-------|
G|-5--5--5-----|-5---5-------------|--5---5--5--5--||-----------|-------|
D|-0--0--0-----|-5---5-------------|---------------||-----------|-------|
A|-------------|-3---3----3--------|---------------||-----------|-------|
E|-------------|-------------------|---------------||-----------|-------|
 |
 | W             E E E E +H          +W                W           W
e|-------------|-------------------|---------------||-^1--------|-^3----|
B|-------------|-1-----------------|---------------||-^3--------|-^3----|
G|-------------|---0---------------|---------------||-^2--------|-^0----|
D|-------------|-----2-------------|---------------||-^0--------|-^0----|
A|-------------|-------3-(3)-------|-(3)-----------||-----------|-^2----|
E|-------------|-------------------|---------------||-----------|-^3----|

   Gtr II
   E E   E E +H            +W                       W               W
e|-----------------------|-----------------------|-^1------------|-^3---------|
B|---------1-(1)---------|-(1)-------------------|-^3------------|-^3---------|
G|-------0---------------|-----------------------|-^2------------|-^0---------|
D|---2-------------------|-----------------------|-^0------------|-^0---------|
A|-3---------------------|-----------------------|---------------|-^2---------|
E|-----------------------|-----------------------|---------------|-^3---------|
 |
 | Gtr III
 | E S S E E  E  S S E E    E  S S E E E S S E E    Q  E E Q  Q     E E H.
e|-----0-----------0-----|--0----0---------0-----|-------0-------|------3-----|
B|-8-----8----6------6---|---------5---3-----3---|--3--6---6-----|----3-------|
G|---0-----0-----0-----0-|-----0-----0---0-----0-|------------2--|--0---------|
D|-----------------------|-----------------------|---------------|------------|
A|-----------------------|-----------------------|---------------|------------|
E|-----------------------|-----------------------|---------------|------------|

    W                     +W
e|-^0-------------------|-(0)-------------------||
B|-^1-------------------|-(1)-------------------||
G|-^0-------------------|-(0)-------------------||
D|-^2-------------------|-(2)-------------------||
A|-^3-------------------|-(3)-------------------||
E|----------------------|-----------------------||
 |
 |  E S S E E E S S E E    E  S S E E E S S E E
e|------0---------0-----|--0----0---------0-----||
B|--8-----8---6-----6---|---------5---3-----3---||
G|----0-----0---0-----0-|-----0-----0---0-----0-||
D|----------------------|-----------------------||
A|----------------------|-----------------------||
E|----------------------|-----------------------||

 [Verse 2]
    W                W
e|-^1--------------|----------------|
B|-^1--------------|----------------|
G|-^2--------------|----------------|
D|-^3--------------|----------------|
A|-^3--------------|----------------|
E|-^1--------------|----------------|
 |
 |  E S S +H.        Q  E E E E Q
e|--0--------------|------0-----8---|
B|----6------------|----6---6-8-----|
G|------5-(5)------|-7--------------|
D|-----------------|----------------|
A|-----------------|----------------|
E|-----------------|----------------|

   E E   E E E E   E E   E E   E E E   S S E E
e|-------3---------1---|-------0---------0-----|
B|---5---------3-------|-1---------3---3---3-1-|
G|-0-------0-0-------0-|---0-----0-------------|
D|---------------------|-----------------------|
A|---------------------|-----------------------|
E|---------------------|-----------------------|
|
 | E S S Q   E S S Q     E S S Q   S S S S E E
e|-----0---------0-----|-0---0-----------0-----|
B|-8-----8---6-----6---|-------5---3---3---3-1-|
G|---0---------0-------|---0---------0---------|
D|---------------------|-----------------------|
A|---------------------|-----------------------|
E|---------------------|-----------------------|

   E Q.     +H        W
e|-0-1------(1)----|-^1--------------|
B|-----------------|-^3--------------|
G|-----------------|-^2--------------|
D|-----------------|-^0--------------|
A|-----------------|-----------------|
E|-----------------|-----------------|
|
 | E E  H.            Q  E E E E Q
e|-0---------------|-------0-----8---|
B|---6-------------|-----6---6-8-----|
G|------5----------|--7--------------|
D|-----------------|-----------------|
A|-----------------|-----------------|
E|-----------------|-----------------|

   E E   E E E E   E E   E E   E E S S S S E E   E Q.     +H         W
e|-------3---------1---|-------0---------0-----|-0-1------(1)-----|-^1---------|
B|---5---------3-------|-1---------3---3---3-1-|------------------|-^3---------|
G|-0-------0-0-------0-|---0-----0---0---------|------------------|-^2---------|
D|---------------------|-----------------------|------------------|-^0---------|
A|---------------------|-----------------------|------------------|------------|
E|---------------------|-----------------------|------------------|------------|
|
 | E S S E E E S S E E   E S S E E E   S S E E   Q    E E  Q   Q     E E H.
e|-----0---------0-----|-0---0-----------0-----|--------0---------|------3-----|
B|-8-----8---6-----6---|-------5---3-------3---|-3----6----6------|----3-------|
G|---0-----0---0-----0-|---0-----0-----0-----0-|---------------2--|--0---------|
D|---------------------|-----------------------|------------------|------------|
A|---------------------|-----------------------|------------------|------------|
E|---------------------|-----------------------|------------------|------------|

   E E   E E E E   E E   E E   E E E S S E E
e|-------3---------1---|-------0-------0-----||
B|---5---------3-------|-1---------3-3---3-1-||
G|-0-------0-0-------0-|---0-----0-----------||
D|---------------------|---------------------||
A|---------------------|---------------------||
E|---------------------|---------------------||
|
 | E S S E E E S S E E   E S S E E E S S E E
e|-----0---------0-----|-0---0---------0-----||
B|-8-----8---6-----6---|-------5---3-----3---||
G|---0-----0---0-----0-|---0-----0---0-----0-||
D|---------------------|---------------------||
A|---------------------|---------------------||
E|---------------------|---------------------||

 [Chorus 2]
    W               W
e|-^1------------|-^3---------------|
B|-^3------------|-^3---------------|
G|-^2------------|-^0---------------|
D|-^0------------|-^0---------------|
A|---------------|-^2---------------|
E|---------------|-^3---------------|
 |
 |  Q  E E Q  Q     E E E E E E E E
e|-------0-------|------3-0---0---0-|
B|--3--6---6-----|----3-----6---3---|
G|------------7--|--0---------------|
D|---------------|------------------|
A|---------------|------------------|
E|---------------|------------------|

   H         Q     E E   W                      W               W
e|-----------------0---|---------------------|-^1------------|-^3---------------|
B|-------------------3-|-1-------------------|-^3------------|-^3---------------|
G|-----------0---------|---------------------|-^2------------|-^0---------------|
D|---------------------|---------------------|-^0------------|-^0---------------|
A|---------------------|---------------------|---------------|-^2---------------|
E|---------------------|---------------------|---------------|-^3---------------|
 |
 | E S S E E E S S E E   E S S E E E S S E E    Q  E E Q  Q     E E E E E E E E
e|-----0---------0-----|-0---0---------0-----|-------0-------|--3-----0---0---0-|
B|-8-----8---6-----6---|-------5---3-----3---|--3--6---6-----|------3---6---3---|
G|---0-----0---0-----0-|---0-----0---0-----0-|------------7--|----0-------------|
D|---------------------|---------------------|---------------|------------------|
A|---------------------|---------------------|---------------|------------------|
E|---------------------|---------------------|---------------|------------------|

                                               [Pre-Chorus]
   H         Q     E E   W                        W              W     4x
e|-----------------0---|---------------------||--^1-----------|-^3-----||
B|-------------------3-|-1-------------------||o-^1-----------|-^3----o||
G|-----------0---------|---------------------||--^2-----------|-^0-----||
D|---------------------|---------------------||--^3-----------|-^0-----||
A|---------------------|---------------------||o-^3-----------|-^2----o||
E|---------------------|---------------------||--^1-----------|-^3-----||
 |
 | E S S E E E S S E E   E S S E E E S S E E      E E H.         W     4x
e|-----0---------0-----|-0---0---------0-----||-----0---------|--------||
B|-8-----8---6-----6---|-------5---3-----3---||o--6---6-------|-^3----o||
G|---0-----0---0-----0-|---0-----0---0-----0-||---------------|-^0-----||
D|---------------------|---------------------||---------------|-^0-----||
A|---------------------|---------------------||o--------------|-^2----o||
E|---------------------|---------------------||---------------|-^3-----||

 [Bridge]
  E5    F5      C5          E5     F5      D5/A
  Gtr IV
   H     H       W          H       H       W
   |     |       |          |       |       |
   /     /       /          /       /       /
   Gtr II
    H     H       W          E E Q   H       W
e|-^0----^1----|-^0--------|--------^1----|-^1---------------------|
B|-^0----^1----|-^1--------|--------^1----|-^3---------------------|
G|-^0----^2----|-^0--------|--------^2----|-^2---------------------|
D|-^2----^3----|-^2--------|-----2--^3----|-^0---------------------|
A|-^2----^3----|-^3--------|---2----^3----|------------------------|
E|-^0----^1----|-----------|-0------^1----|------------------------|
 |
 | Gtr V
 |  W             W          W               Q  E E E   +E  E E
e|-------------|-----------|--------------|------------------------|
B|-------------|-----------|--------------|-----3-5-5b6r(5)-3------|
G|-------------|-----------|--------------|-------------------4b5r=|
D|-------------|-----------|--------------|------------------------|
A|-------------|-----------|--------------|------------------------|
E|-------------|-----------|--------------|------------------------|

  E5       F5       C5
   H       H         W
   |       |         |
   /       /         /
    E  E Q  E E Q     E  E E E +H
e|-----------------|------------------------|
B|-----------------|---------1-(1)----------|
G|-----------------|-------0----------------|
D|-------2------3--|-----2------------------|
A|-----2------3----|--3---------------------|
E|--0-------1------|------------------------|
 |
 |  ~~~~~~~~~~~~~~~~~~~~~~~~~~~~~~~~~~~~
 | +W                 H.            +E  E
e|-----------------|------------------------|
B|-----------------|------------------------|
G|-(4)-------------|-/5-------------(5)-4b5r|
D|-----------------|------------------------|
A|-----------------|------------------------|
E|-----------------|------------------------|

  E5     F5      G5
   H      H       W          +H.           E S S
   |      |       |           |            | | |
   /      /       /           /            / x x
    H      H       W           E  E E E E E E E
e|-^0-----^1----|-^3--------|-----------3-----------||
B|-^0-----^1----|-^3--------|-------------3---------||
G|-^0-----^2----|-^0--------|---------0-----0-------||
D|-^2-----^3----|-^0--------|-------0---------0-----||
A|-^2-----^3----|-^2--------|-----2-----------------||
E|-^0-----^1----|-^3--------|--3--------------------||
 |
 |  ~~~
 | +H      H       W          +W
e|--------------|-----------|-----------------------||
B|--------------|-----------|-----------------------||
G|-(4)-----2----|--0--------|-(0)-------------------||
D|--------------|-----------|-----------------------||
A|--------------|-----------|-----------------------||
E|--------------|-----------|-----------------------||

 [Guitar Solo]
  F
  Gtr II
  W
  |
  /
   Gtr V
   Q.         +S  +S      +E   S  +S  +E  +S  S
e|-----------------------------8----------------|
B|-8pb10======(8)r(8)b10==(8)-(8)-(8)-(8)r(8)p6-|
G|----------------------------------------------|
D|----------------------------------------------|
A|----------------------------------------------|
E|----------------------------------------------|
 |
 | Gtr IV
 | E      E E  E          +E   S   S   Q
e|-------------1----------(1)-------------------|
B|----------1-----------------------------------|
G|--------2----------------------------2--------|
D|-3-------------------------------3------------|
A|-----------------------------3----------------|
E|----------------------------------------------|

  Dm                                                        C
  Q             H.                                           W
  |             |                                            |
  /             /                                            /
                                                              ~~~         ~~~
   S     +S  +Q     +S  +S      +E   S  S +S  +S  S    +S    +Q.       E +Q   a    +S  +S     +E
e|-----------------------------------8---------------------|-----------8-(8)--------------------------|
B|-8b10==(8)-(8)----(8)r(8)b10==(8)-(8)-8-(8)r(8)-5b7==(5)r|=(5)--------------5b6==(5)r(5)b6==(5)r----|
G|---------------------------------------------------------|------------------------------------------|
D|---------------------------------------------------------|------------------------------------------|
A|---------------------------------------------------------|------------------------------------------|
E|---------------------------------------------------------|------------------------------------------|
 |
 | E          E  E   E          +E   S  S  Q                  E  E a Q   +Q.                   S   S
e|-------------------1----------(1)------------------------|------------------------------------------|
B|---------------3-------------------------3---------------|--1---------------------------------------|
G|------------2-------------------------2------------------|-----0------------------------------------|
D|-0---------------------------------0---------------------|-------0h2---(2)-------------------0h==2--|
A|---------------------------------------------------------|------------------------------------------|
E|---------------------------------------------------------|------------------------------------------|

                              F
  +W                          W
   |                          |
   /                          /
    ~~~
    Q.   S S  S  S S a S E E   Q.         S +S      +E   S  S +E  +S  S
e|---------------------------|---------------------------8--------------|
B|--5--------------8---------|-8pb10======8r(8)b10==(8)-(8)-8-(8)r(8)p6-|
G|-------7p5--7s=9---9s7-7-5-|------------------------------------------|
D|---------------------------|------------------------------------------|
A|---------------------------|------------------------------------------|
E|---------------------------|------------------------------------------|
 |
 |  H        +E    S   S Q     E      E E E         +E   S  S  E   E
e|---------------------------|------------1---------(1)-----------------|
B|---------------------------|----------1-------------------------------|
G|--0--------(0)---------0---|--------2------------------------2--------|
D|-----------------0h==2-----|-3----------------------------3------2----|
A|---------------------------|---------------------------3--------------|
E|---------------------------|------------------------------------------|

        Dm
         W
         |
         /
   a     +S  +S      +Q    S +S      +E   S S     +E  +E
e|----------------------------------------8-8b10==(8)r(8)-|
B|-8b10==(8)r(8)b10==(8)---8r(8)b10==(8)r-----------------|
G|--------------------------------------------------------|
D|--------------------------------------------------------|
A|--------------------------------------------------------|
E|--------------------------------------------------------|
 |
 |        E           E  E E          E   E        E   E
e|-------------------------1-----------------------0------|
B|-----------------------3-----------------------------3--|
G|--------------------2-------------------2---------------|
D|--------0---------------------------0-------------------|
A|--------------------------------------------------------|
E|--------------------------------------------------------|

    a      +H         +E     +E  S  S S  S
e|-10b12==(10)-------(10)r==(10)-8h10p8----|
B|--------------------------------------10-|
G|-----------------------------------------|
D|-----------------------------------------|
A|-----------------------------------------|
E|-----------------------------------------|
 |
 | Gtr II
 |          E  E E E  +H
e|-----------------------------------------|
B|-----------------1--(1)------------------|
G|---------------0-------------------------|
D|-------------2---------------------------|
A|----------3------------------------------|
E|-----------------------------------------|
 |
 | Gtr IV
 |          E  E Q     S  S   Q       S  S
e|-----------------------------------------|
B|-----------------------------------------|
G|---------------0------------0------------|
D|-------------2-------0h=2-----------0h=2-|
A|----------3------------------------------|
E|-----------------------------------------|

                     ~~~~~                                  ~~
   S  a      +E.    +Q      S   S  S  S  S  S  a      E     H        +E   S  S  E  S  T  T
e|-8-----------------------13p=12----13p12----13b15==13r-|-13-------(13)----12-13-12h13p12-|
B|---11b13==(11)---(11)r----------13-------13------------|---------------15----------------|
G|-------------------------------------------------------|---------------------------------|
D|-------------------------------------------------------|---------------------------------|
A|-------------------------------------------------------|---------------------------------|
E|-------------------------------------------------------|---------------------------------|
 |
 | E             E   E   E  H                               Q   E E   E   E     E  E
e|-0-----------------------------------------------------|--1-----0---1---0----------------|
B|---------------1---------------------------------------|--3---3---------------3----------|
G|-------------------0-----------------------------------|--2----------------------2-------|
D|-----------------------2-------------------------------|--0------------------------------|
A|--------------------------3----------------------------|---------------------------------|
E|-------------------------------------------------------|---------------------------------|
 |
 | H                       +E      S  S  Q                  E E E E   E   E     E  E
e|-------------------------------------------------------|--------0---1---0----------------|
B|-------------------------------------------------------|------3---------------3----------|
G|-0-----------------------(0)-----------0---------------|----2--------------------2-------|
D|---------------------------------0h=2------------------|--0------------------------------|
A|-------------------------------------------------------|---------------------------------|
E|-------------------------------------------------------|---------------------------------|

    ~~~                                                        ~~                 ~~~~~
    Q.      S  S  S      +E.    +S   +S   S  S    a      +E    Q     a      +E   +Q.     S  S
e|------------12-13b15==(13)---(13)r(13)-13-12-|-12b13==(12)r-12----19b20==(19)-(19)r---19-19-|
B|-15------15----------------------------------|----------------------------------------------|
G|---------------------------------------------|----------------------------------------------|
D|---------------------------------------------|----------------------------------------------|
A|---------------------------------------------|----------------------------------------------|
E|---------------------------------------------|----------------------------------------------|
 |
 |  Q    E  E     E          E   Q                        E    E E           E   +H
e|-^3-------------3----------------------------|----------------------------------------------|
B|-^3-------3----------------3-----------------|-----------------------------1---(1)----------|
G|-^0----0-----------------------0-------------|-----------------0----------------------------|
D|-^0------------------------------------------|---------------2------------------------------|
A|-^2------------------------------------------|----------3-----------------------------------|
E|-^3------------------------------------------|----------------------------------------------|
 |
 |  E  E E  E    +E          E   E        E               E    E H.
e|-------3-----------------------3-------------|----------------------------------------------|
B|-----3----------------------------------0----|-----------------1----------------------------|
G|--0-------0----(0)---------0-----------------|---------------0------------------------------|
D|---------------------------------------------|----------2-----------------------------------|
A|---------------------------------------------|----------------------------------------------|
E|---------------------------------------------|----------------------------------------------|

    S  S  S  S  S  S  S  S  S   S  S  S  S  T  T  E
e|-19s17-17-17s15-15-15s13-13--13s12-12-12h13p12----|
B|-----------------------------------------------15-|
G|--------------------------------------------------|
D|--------------------------------------------------|
A|--------------------------------------------------|
E|--------------------------------------------------|
 |
 |  E     E     E     E     H
e|--0-----------------------------------------------|
B|--------1-----------------------------------------|
G|--------------0-----------------------------------|
D|--------------------2-----------------------------|
A|--------------------------3-----------------------|
E|--------------------------------------------------|
 |
 |  E     E     Q          +E      E     E        E
e|--------------------------------------------------|
B|--------------1----------(1)----------------------|
G|--------0---------------------------------------0-|
D|--2------------------------------------2----------|
A|---------------------------------3----------------|
E|--------------------------------------------------|

       ~~
    a  H        S  S  S  T  T  S  S  S  S
e|-12h13-------12-13-12h13p12-10----12----|
B|-------------------------------13----13-|
G|----------------------------------------|
D|----------------------------------------|
A|----------------------------------------|
E|----------------------------------------|
 |
 |     E E E E  E     E        E     E
e|----^1-----0--1-------------------------|
B|----^3---3-------------------3----------|
G|----^2-2------------2--------------2----|
D|----^0----------------------------------|
A|----------------------------------------|
E|----------------------------------------|
 |
 |     E E E E  E     E        E     E
e|-----------0--1-----0-------------------|
B|---------3-------------------3----------|
G|-------2---------------------------2----|
D|-----0----------------------------------|
A|----------------------------------------|
E|----------------------------------------|

    S  T  T  S  S  S  S  S  T  T  S  S  S  S  S  S  a  S  T T
e|-10h12p10----10---------------------------------------------|
B|----------13----12h13-12h13p12p10----12----10---------------|
G|----------------------------------12----12----10-10s12-10s9-|
D|------------------------------------------------------------|
A|------------------------------------------------------------|
E|------------------------------------------------------------|
 |
 |  W
e|-^3---------------------------------------------------------|
B|-^3---------------------------------------------------------|
G|-^0---------------------------------------------------------|
D|-^0---------------------------------------------------------|
A|-^2---------------------------------------------------------|
E|-^3---------------------------------------------------------|
 |
 |  E        E     E     E        E     S  S  E        E
e|-----------------3--------------------------3---------------|
B|-----------3-----------------------------3-----------0------|
G|--0-----------------------------0-----0---------------------|
D|-----------------------0------------------------------------|
A|------------------------------------------------------------|
E|------------------------------------------------------------|

                          ~~~~
   +Q    +S   T  T S  S  +Q        S  T  T S  S
e|----------------------------------------------|
B|-------------------13-(13)-----------------13-|
G|-(9)---(9)-12p10s9--------------10h12p10s9----|
D|----------------------------------------------|
A|----------------------------------------------|
E|----------------------------------------------|
 |
 |  E  E  E        E     +H
e|----------------------------------------------|
B|-----------------1-----(1)--------------------|
G|--------0-------------------------------------|
D|-----2----------------------------------------|
A|--3-------------------------------------------|
E|----------------------------------------------|
 |
 |  E  E  Q               S  S Q.
e|----------------------------------------------|
B|--------1--------------------1----------------|
G|-----0---------------------0------------------|
D|--2---------------------2---------------------|
A|----------------------------------------------|
E|----------------------------------------------|

     ~~~~
    +Q        S  T  T S  a      +S   +Q     S   S  +E
e|-----------------------------------------15----------||
B|-(13)-----------------15b17==(15)-(15)--(15)-15r(15)-||
G|-----------10h12p10s9--------------------------------||
D|-----------------------------------------------------||
A|-----------------------------------------------------||
E|-----------------------------------------------------||
 |
 |   E    E   E       E               H
e|---0-------------------------------------------------||
B|--------1--------------------------------------------||
G|------------2----------------------------------------||
D|--------------------0--------------------------------||
A|------------------------------------3----------------||
E|-----------------------------------------------------||
 |
 |   S  S Q.                         +H
e|-----------------------------------------------------||
B|--------1--------------------------(1)---------------||
G|------0----------------------------------------------||
D|---2-------------------------------------------------||
A|-----------------------------------------------------||
E|-----------------------------------------------------||

 [Pre-Chorus]
  F                     G
  Gtr II
   W                      W
   |                      |
   /                      /
   Gtr V
    H     +Q.    E        +Q    Q  Q  S S S S
e|---------------------|----------------------|
B|-13----(13)---13b15==|=(13)r----------------|
G|---------------------|--------------5h7p5---|
D|---------------------|--------------------7-|
A|---------------------|----------------------|
E|---------------------|----------------------|

  F                   G
  W                   W
  |                   |
  /                   /
   E E E E +Q.   S S   E Q  a    +E  +Q.    S S
e|-------------------|---------------------------|
B|-6-5---------------|------6b8==(6)-(6)r---6p5--|
G|-----5---------5h7-|---------------------------|
D|-------7-(7)-------|-7-5-----------------------|
A|-------------------|---------------------------|
E|-------------------|---------------------------|

  F                  G
  W                  W
  |                  |
  /                  /
   E E E E +H       a H    +E. S S S S S
e|----------------|----------------------|
B|-6-5------------|----------------------|
G|-----5----------|-5h7----(7)---5h7p5---|
D|-------7-(7)----|------------7-------7-|
A|----------------|----------------------|
E|----------------|----------------------|

  F                G
  W                W                  +W
  |                |                   |
  /                /                   /
   E E E E +H       Q  Q   Q   a  Q     Q   Q   Q   Q
e|----------------|------------------|-------------------||
B|-6-5------------|------------------|-------------------||
G|-----5----------|-7--9--10--10s12--|-14--16--17--19----||
D|-------7-(7)----|------------------|-------------------||
A|----------------|------------------|-------------------||
E|----------------|------------------|-------------------||

 [Guitar Solo 2]
   Gtr V
    ~~~
    H.          a      +E.     S     T  +E..  +Q    +E    a       +E   +S    S  E
e|----------------------------20--|-----------------------------------------20----|
B|-18----------20b22==(20)---(20)-|-20r(20)--(20)--(20)-(20)b22==(20)-(20)r----18-|
G|--------------------------------|-----------------------------------------------|
D|--------------------------------|-----------------------------------------------|
A|--------------------------------|-----------------------------------------------|
E|--------------------------------|-----------------------------------------------|
 |
 | Gtr III
 |  H     +Q.              S   S     H.                                 S    S  E
e|--------------------------------|-----------------------------------------------|
B|--------------------------------|---------------------------------------------3-|
G|--2-----(2)---------------------|------------------------------------------2----|
D|-------------------------3---2--|--0----------------------------------0---------|
A|--------------------------------|-----------------------------------------------|
E|--------------------------------|-----------------------------------------------|

    ~~~
    Q.      a      +E   +H             +Q       Q   E  Q          +S       +S
e|---------18b20==(18)-(18)---------|-(18)r------------------------------------|
B|-17-------------------------------|-----------------17pb18r====(17)b18==(17)-|
G|----------------------------------|------------------------------------------|
D|----------------------------------|------------------------------------------|
A|----------------------------------|------------------------------------------|
E|----------------------------------|------------------------------------------|
 |
 |  E  S S  E       E    E  S S E E     E   S S E E E  S     S E   E
e|-------0--------------------0-----|---0-----0--------------0-----------------|
B|--8-------8------------6------6---|-----------5---3----------3---------------|
G|-----0------------0-------0-----0-|-------0-----0----0-----------0-----------|
D|----------------------------------|------------------------------------------|
A|----------------------------------|------------------------------------------|
E|----------------------------------|------------------------------------------|

     ~~~~~
    +H                        +E      S  S  S  S  S  S
e|-----------------------------------------------17----|
B|-(17)r=====================(17)-------17-18-20----18-|
G|-----------------------------------19----------------|
D|-----------------------------------------------------|
A|-----------------------------------------------------|
E|-----------------------------------------------------|
 |
 |   E      E     H                         E     E
e|---0--------------------------------------------0----|
B|----------6-------------------------------6----------|
G|----------------5------------------------------------|
D|-----------------------------------------------------|
A|-----------------------------------------------------|
E|-----------------------------------------------------|
 |
 | Gtr IV
 |   S   S  S  S  S  S  S  S   S   S  S  S  S  S  S  S
e|--12--13----12---------------------------------------|
B|---------15----13-15-12-13------12-------------------|
G|----------------------------14-----12-14-10-12--9-10-|
D|-----------------------------------------------------|
A|-----------------------------------------------------|
E|-----------------------------------------------------|

                                                                             ~~~~~~~
  S  S  S  S  a      +S   +S   E  S      +S   +S   S  S  S  S  S   S  E  S  +E   S  S  S  E   S  +S   S  S  S
e|--------------------------------------------------------------|--------------------------------------------|
B|20-17-18-20-17b18==(17)r(17)-17-------------------------------|20-------------------20---------------------|
G|--------------------------------19b21==(19)r(19)p17-19p17---17|---17--17-(17)----17----17--17-(17)-17----17|
D|----------------------------------------------------------19--|---------------19----------------------19---|
A|--------------------------------------------------------------|--------------------------------------------|
E|--------------------------------------------------------------|--------------------------------------------|
 |
 | Q                   E        E  E            E      E     E     E    S  S   E   E     E    S  S   E      E
e|------------------------------0--3-------------------------0---|---------0---------------------0-----------|
B|-3-------------------6------------------------6------3---------|-8-----------8---------6-----------6-------|
G|---------------------------------------------------------------|------0----------0----------0-------------0|
D|---------------------------------------------------------------|-------------------------------------------|
A|---------------------------------------------------------------|-------------------------------------------|
E|---------------------------------------------------------------|-------------------------------------------|
 |
 | Q                   Q           H                                W
e|---------------------------------------------------------------|------------------------------------------|
B|---------------------------------------------------------------|------------------------------------------|
G|---------------------------------------------------------------|------------------------------------------|
D|12-------------------------------------------------------------|------------------------------------------|
A|---------------------------------------------------------------|------------------------------------------|
E|---------------------------------------------------------------|------------------------------------------|

    a      +E    E    S  T  T  S  S  S  T  T  S  S  E     S  a      +S
e|----------------------------------------------------------------------||
B|-20b22==(20)r-20---18h20p18p17-18-17h18p17----17-------20-------------||
G|-------------------------------------------19----19b21----19pb21r(19)-||
D|----------------------------------------------------------------------||
A|----------------------------------------------------------------------||
E|----------------------------------------------------------------------||
 |
 |          E    S S  E        E     E        S  S  E     E
e|----------0------0-----------------------------0----------------------||
B|--------------------5--------------3--------------3-------------------||
G|---------------0-------------0--------------0-----------0-------------||
D|----------------------------------------------------------------------||
A|----------------------------------------------------------------------||
E|----------------------------------------------------------------------||
 |
 | Gtr II
 |          W
e|----------------------------------------------------------------------||
B|----------------------------------------------------------------------||
G|----------------------------------------------------------------------||
D|----------------------------------------------------------------------||
A|----------------------------------------------------------------------||
E|----------------------------------------------------------------------||

 [3rd Verse]
           ~~~
    +Q     H.         W                W
e|-----------------|-----------------|-----------------------|
B|-----------------|-----------------|-----------------------|
G|-(19)---17-------|-----------------|-----------------------|
D|-----------------|-----------------|-----------------------|
A|-----------------|-----------------|-----------------------|
E|-----------------|-----------------|-----------------------|
 |
 |   E  E  H.         Q  E E E E E E   E S S E E  E  S S E E
e|---0-------------|-------0-3-----0-|-----0-----------0-----|
B|------6----------|-----6-----6-3---|-8-----8----6------6---|
G|---------5-------|-----------------|---0-----0-----0-----0-|
D|-----------------|--0--------------|-----------------------|
A|-----------------|-----------------|-----------------------|
E|-----------------|-----------------|-----------------------|
 |
 |   W                W                E E   E E +H
e|-^-1-------------|-^1--------------|-----------------------|
B|-^-1-------------|-^3--------------|---------1-(1)---------|
G|-^-2-------------|-^2--------------|-------0---------------|
D|-^-3-------------|-^0--------------|---2-------------------|
A|-^-3-------------|-----------------|-3---------------------|
E|-^-1-------------|-----------------|-----------------------|

   Gtr II
   +W                       W
e|-----------------------|-^1-----------|
B|-(1)-------------------|-^1-----------|
G|-----------------------|-^2-----------|
D|-----------------------|-^3-----------|
A|-----------------------|-^3-----------|
E|-----------------------|-^1-----------|
 |
 | Gtr III
 |  E  S S E E E S S E E    E E H.
e|--0----0---------0-----|--0-----------|
B|---------5---3-----3---|----6---------|
G|-----0-----0---0-----0-|------5-------|
D|-----------------------|--------------|
A|-----------------------|--------------|
E|-----------------------|--------------|

    W                 E E   E E E E   Q
e|-^1---------------|-----------0---------|
B|-^3---------------|---------1---1-------|
G|-^2---------------|-------0---------0---|
D|-^0---------------|---2-----------------|
A|------------------|-3-------------------|
E|------------------|---------------------|
|
 |  E E E E E E E E   E S S E E E S S E E
e|--------0-3-----0-|-----0---------0-----|
B|------3-----6-3---|-8-----8---6-----6---|
G|----2-------------|---0-----0---0-----0-|
D|--0---------------|---------------------|
A|------------------|---------------------|
E|------------------|---------------------|

                        [Chorus 3]
   E E   E E H             W
e|-0-------------------||-^1------------|
B|---1-----------------||-^3------------|
G|-------0-------------||-^2------------|
D|---------2-----------||-^0------------|
A|-----------3---------||---------------|
E|---------------------||---------------|
|
 | E S S E E E S S E E     Q  E E Q  Q
e|-0---0---------0-----||-------0-------|
B|-------5---3-----3---||-----6---3-----|
G|---0-----0---0-----0-||--7---------2--|
D|---------------------||---------------|
A|---------------------||---------------|
E|---------------------||---------------|

    W                 W
e|-^3--------------|-^0-------------------|
B|-^3--------------|-^1-------------------|
G|-^0--------------|-^0-------------------|
D|-^0--------------|-^2-------------------|
A|-^2--------------|-^3-------------------|
E|-^3--------------|----------------------|
|
 |  Q  E E E E E E    E S S E E E S S E E
e|--3----0---0---0-|------0---------0-----|
B|-----3---6---3---|--8-----8---6-----6---|
G|-----------------|----0-----0---0-----0-|
D|-----------------|----------------------|
A|-----------------|----------------------|
E|-----------------|----------------------|

                                         G                   C5    G/B
  Gtr IV
   W                      W               H      Q   E S S    H     H
                                                       | |    |     |
                                                       x x    /     /
    W                      W               W                   H     H
e|-^0-------------------|-^1------------|-^3----------------|-^0----^3----|
B|-^1-------------------|-^3------------|-^3----------------|-^1----^3----|
G|-^0-------------------|-^2------------|-^0----------------|-^0----^0----|
D|-^2-------------------|-^0------------|-^0----------------|-^2----^0----|
A|-^3-------------------|---------------|-^2----------------|-^3----^2----|
E|----------------------|---------------|-^3----------------|-------------|
 |
 |  E S S E E E S S E E    Q  E E Q  Q     Q  E E E E Q        W
e|--0---0---------0-----|-------0-------|--3--3-3-3-3-3-----|-------------|
B|--------5---3-----3---|-----6---3-----|--3--3-3-3-3-3-----|-------------|
G|----0-----0---0-----0-|--7---------2--|--0--0-0-0-0-0-----|-------------|
D|----------------------|---------------|--0--0-0-0-0-0-----|-------------|
A|----------------------|---------------|--2--2-2-2-2-2-----|-------------|
E|----------------------|---------------|--3--3-3-3-3-3-----|-------------|

  A5    G5(type F5          G5(type 2)
   H     H       W           W
   |     |       |           |
   /     /       /           /
    H     H       W           W
e|-^0----^3----|-^1--------|-^3--------|
B|-^1----^3----|-^1--------|-^3--------|
G|-^2----^0----|-^2--------|-^0--------|
D|-^2----^0----|-^3--------|-^0--------|
A|-^0----^2----|-^3--------|-^2--------|
E|-------^3----|-^1--------|-^3--------|

  C5    G/B     A5    G       F5          G5
   H     H       H     H       W           W
   |     |       |     |       |           |
   /     /       /     /       /           /
    H     H       H     H       W           W
e|-^0----^3----|-^0----^3----|-^1--------|-^3----|
B|-^1----^3----|-^1----^3----|-^1--------|-^3----|
G|-^0----^0----|-^2----^0----|-^2--------|-^0----|
D|-^2----^0----|-^2----^0----|-^3--------|-^0----|
A|-^3----^2----|-^0----^2----|-^3--------|-^2----|
E|-------------|-------^3----|-^1--------|-^3----|

             [Interlude]
           Q=85
  C5
  Gtr IV      Gtr VI
  W           W                      W
  |
  /
   Gtr II      Gtr I
   W           Q  E S S  S  S E E E   E Q  E E S S +S  E.
e|-0--------||----------------------|-------------------------|
B|-1--------||----------------------|-------------------------|
G|-0--------||-3--5-3-5-(5)-3-5-3-5-|-5-5--5-7-7-8-(8)-7------|
D|-2--------||-5--5-5-5-(5)-5-5-5-5-|-6-6--6-8-8-8-(8)-8------|
A|-3--------||-3---------3----------|-6-6--6-8-8-8-(8)-8------|
E|----------||----------------------|-4-4--4-6-6-6-(6)-8------|
 |
 | Gtr IV
 | W           W                      H      Q      E     S S
e|----------||----------------------|-------------------------|
B|----------||----------------------|-------------------------|
G|----------||----------------------|---------------------x-x-|
D|----------||----------------------|---------------------x-x-|
A|----------||----------------------|---------------------x-x-|
E|----------||----------------------|-------------------------|

     C5
  Q  H.                   +W
     |                     |
     /                     /
   Q  E  S S  S  S E E E    E  Q  E E S S +S  E.
e|-----------------------|------------------------|
B|-----------------------|------------------------|
G|-3--5--3-5-(5)-3-5-3-5-|--5--5--5-7-7-8-(8)-7---|
D|-5--5--5-5-(5)-5-5-5-5-|--6--6--6-8-8-8-(8)-8---|
A|-3----------3----------|--6--6--6-8-8-8-(8)-8---|
E|-----------------------|--4--4--4-6-6-6-(6)-8---|
 |
 | W                       +W
e|-----------------------|------------------------|
B|-----------------------|------------------------|
G|-5---------------------|-(5)--------------------|
D|-5---------------------|-(5)--------------------|
A|-3---------------------|-(3)--------------------|
E|-----------------------|------------------------|

     C5
  Q  H.                   +W
     |                     |
     /                     /
   Q  E  S S  S  S E E E    E  Q  E E S S +S  E.
e|-----------------------|---------------------------|
B|-----------------------|---------------------------|
G|-3--5--3-5-(5)-3-5-3-5-|--5--5--5-7-7-8-(8)-7------|
D|-5--5--5-5-(5)-5-5-5-5-|--6--6--6-8-8-8-(8)-8------|
A|-3----------3----------|--6--6--6-8-8-8-(8)-8------|
E|-----------------------|--4--4--4-6-6-6-(6)-8------|
|
 | W                       +H.            +S  S  S S
e|-----------------------|---------------------------|
B|-----------------------|---------------------------|
G|-5---------------------|-(5)------------(5)-x--x-x-|
D|-5---------------------|-(5)------------(5)-x--x-x-|
A|-3---------------------|-(3)------------(3)-x--x-x-|
E|-----------------------|---------------------------|

     C5
  Q  H.                   +W
     |                     |
     /                     /
   Q  E  S S  S  S E E E    E   Q         E   E   S S +S  E.
e|-----------------------|-------------------------------------|
B|-----------------------|-------------------------------------|
G|-3--5--3-5-(5)-3-5-3-5-|--5---5---------5---7---7-8-(8)-7----|
D|-5--5--5-5-(5)-5-5-5-5-|--6---6---------6---8---8-8-(8)-8----|
A|-3----------3----------|--6---6---------6---8---8-8-(8)-8----|
E|-----------------------|--4---4---------4---6---6-6-(6)-8----|
|
 | W                        S S S S +S  E   S S S S S +S  E  S
e|-----------------------|-------------------------------------|
B|-----------------------|-------------------------------------|
G|-5---------------------|--5-5-x-5-(5)-5---5-5-5-x-5-(5)-5--5-|
D|-5---------------------|--5-5-x-5-(5)-5---5-5-5-x-5-(5)-5--5-|
A|-3---------------------|-------------------------------------|
E|-----------------------|-------------------------------------|

  C5                 G5
  Gtr VI
           Q.    S S  Q.    E
           |     | |  |     |
           /     x x  /     x
   Gtr V
                       ~~~
    a      +H          Q.    E
e|-19b20==(19)r-------19----20b22==|
B|---------------------------------|
G|---------------------------------|
D|---------------------------------|
A|---------------------------------|
E|---------------------------------|
 |
 | Gtr IV
 |          Q.    S S  H
e|---------------------------------|
B|---------------------------------|
G|----------5-----x-x--------------|
D|----------5-----x-x--5-----------|
A|----------3-----x-x--5-----------|
E|---------------------3-----------|

  F5           Eb5            Ab5               Bb5
    Q     E  E  Q.        E    Q.    S     S     Q.    S  S
    |     |  |  |         |    |     |     |     |     |  |
    /     x  x  /         x    /     x     x     /     x  x
                                ~~~               ~~~
    +Q     E  E  E   E  E  E    Q.    T  T  T  T  Q.    S  S
e|-(20)r--20-19-20--15----15-|-16----15h16p15----15-------15-|
B|---------------------16----|----------------18-------18----|
G|---------------------------|-------------------------------|
D|---------------------------|-------------------------------|
A|---------------------------|-------------------------------|
E|---------------------------|-------------------------------|
 |
 |   H           H              H                 H
e|---------------------------|-------------------------------|
B|---------------------------|-------------------------------|
G|---------------8-----------|--------------------3----------|
D|---3-----------8-----------|--6-----------------3----------|
A|---3-----------6-----------|--6-----------------1----------|
E|---1-----------------------|--4----------------------------|

  C5                                                    Bb5/CC5
   E     S     S     E     S  S    +S  S  E     S  S  S  S
   |     |     |     |     |  |     |  |  |     |  |  |  |
   /     x     x     /     x  /     /  x  /     /  /  /  /
    S  S  T  T  T  T  S  S  S  T  T  S  S  S  S  S  S  S  S
e|-16-15-16p15----------------15----------------------------|
B|-------------18-16----16-18----18-16-18-15-16-18-16-15-16-|
G|-------------------17-------------------------------------|
D|----------------------------------------------------------|
A|----------------------------------------------------------|
E|----------------------------------------------------------|
 |
 |  W
e|----------------------------------------------------------|
B|----------------------------------------------------------|
G|--5-------------------------------------------------------|
D|--5-------------------------------------------------------|
A|--3-------------------------------------------------------|
E|----------------------------------------------------------|

   E            S             S   E     S  S +S   E     S +S S S S
   |            |             |   |     |  |  |   |     |  | | | |
   /            x             x   /     x  /  /   /     /  / / / /
                                                            ~~
    S      +S   +T       +T   +S   S  S  S  S  S   S  S  S  Q
e|-------------------------------------------------------------------|
B|-15b16==(15)r(15)b16==(15)r(15)----15-16-18-15--16-18-15-----------|
G|--------------------------------17-----------------------17--------|
D|-------------------------------------------------------------------|
A|-------------------------------------------------------------------|
E|-------------------------------------------------------------------|
 |
 | +H                                         +S   S  S  S  E   S S
e|-------------------------------------------------------------------|
B|-------------------------------------------------------------------|
G|-(5)----------------------------------------(5)--x--x--x--5---x-x--|
D|-(5)----------------------------------------(5)--x--x--x--5---x-x--|
A|-(3)----------------------------------------(3)--x--x--x--3---x-x--|
E|-------------------------------------------------------------------|

                  G5                 F5               Eb5
           H       S  S Q.             S   S Q.        E  Q     S S
           |       |  | |              |   | |         |  |     | |
           /       x  x /              x   x /         x  /     x x
                    ~~~
    a      +H       Q.        E        +Q         E  E  E  E  E  E
e|-19b20==(19)r----19--------20b22==|=(20)r------20-19-20-15----15---|
B|----------------------------------|------------------------16------|
G|----------------------------------|--------------------------------|
D|----------------------------------|--------------------------------|
A|----------------------------------|--------------------------------|
E|----------------------------------|--------------------------------|
 |
 |          H       H                   H               H
e|----------------------------------|--------------------------------|
B|----------------------------------|--------------------------------|
G|----------5-----------------------|-------------------8------------|
D|----------5-------5---------------|---3---------------8------------|
A|----------3-------5---------------|---3---------------6------------|
E|------------------3---------------|---1----------------------------|

  Ab5                   Bb5
   S  S Q.               S  S Q   S    S
   |  | |                |  | |   |    |
   x  x /                x  x /   x    x
   ~~~                   ~~~
                                  |---3---|
    Q.        T  T  T  T  Q.       S  S    S
e|-16--------15h16p15----15------------------|
B|--------------------18----------15-16---18-|
G|-------------------------------------------|
D|-------------------------------------------|
A|-------------------------------------------|
E|-------------------------------------------|
 |
 |  H                     H
e|-------------------------------------------|
B|-------------------------------------------|
G|------------------------3------------------|
D|--6---------------------3------------------|
A|--6---------------------1------------------|
E|--4----------------------------------------|

  C5
   E      S     S     E        S     S    +S  S     E           Q
   |      |     |     |        |     |     |  |     |           |
   /      x     x     /        x     /     /  x     /           /
                      |--3--|
    S   S  T  T  T  T  S  S  S  T  T  T  T  S  T  T  T  T  T  T  T   T  T  T  S  T  T
e|-15--16-15h16p15-------15-------15-------------------------15-16p=15-------15-------|
B|-----------------18-16----16-18----18p16-18-16----15-16-18-----------18-16----16h18-|
G|-----------------------------------------------17-----------------------------------|
D|------------------------------------------------------------------------------------|
A|------------------------------------------------------------------------------------|
E|------------------------------------------------------------------------------------|
 |
 |  H.                                                          +E            S  S
e|------------------------------------------------------------------------------------|
B|------------------------------------------------------------------------------------|
G|--5-----------------------------------------------------------(5)-----------x--x----|
D|--5-----------------------------------------------------------(5)-----------x--x----|
A|--3-----------------------------------------------------------(3)-----------x--x----|
E|------------------------------------------------------------------------------------|

  +E           E           Q                 +E         E           Q
   |           |           |                  |         |           |
   /           /           /                  /         /           /
                                                                     ~~
    T  T  T  T  T  T  T  T  S  S  T  T  T  T  +S   T  T  T  T  T  T  Q
e|-15---------------------------------------------------------------------|
B|----18-16----15-16-18-15----16-15---------------------------------------|
G|----------17-------------17-------17-15-17-(17)-15-13-15-13-15-13-------|
D|------------------------------------------------------------------12----|
A|------------------------------------------------------------------------|
E|------------------------------------------------------------------------|
 |
 |  Q                       E     S     S      Q                     Q
e|------------------------------------------------------------------------|
B|------------------------------------------------------------------------|
G|--5-----------------------5-----x-----x------5---------------------5----|
D|--5-----------------------5-----x-----x------5---------------------5----|
A|--3-----------------------3-----x-----x------3---------------------3----|
E|------------------------------------------------------------------------|

                     G5                 F5                        Eb5
           Q.    S S  S  S Q.             S   S Q.                  S   S Q.
           |     | |  |  | |              |   | |                   |   | |
           /     x x  x  x /              x   x /                   x   x /
                       ~~~
    a      +H          Q.        E        +Q         E  E    a      +Q.         S  S
e|-19b20==(19)r-------19--------20b22==|=(20)r------20-19----------------------------|
B|-------------------------------------|---------------------------------------------|
G|-------------------------------------|--------------------19b20==(19)r-------19-17-|
D|-------------------------------------|---------------------------------------------|
A|-------------------------------------|---------------------------------------------|
E|-------------------------------------|---------------------------------------------|
 |
 |          Q.    S S  H                   Q.           S S          H
e|-------------------------------------|---------------------------------------------|
B|-------------------------------------|---------------------------------------------|
G|----------5-----x-x------------------|-----------------------------8---------------|
D|----------5-----x-x--5---------------|---3------------x-x----------8---------------|
A|----------3-----x-x--5---------------|---3------------x-x----------6---------------|
E|---------------------3---------------|---1------------x-x--------------------------|

  Ab5                    Bb5
   S  S Q.                 S    S        Q.
   |  | |                  |    |        |
   x  x /                  x    x        /
    Q.        S  S  a      +S   +S       +E   +Q
e|--------------------------------------------------|
B|--------------------------------------------------|
G|-20--------19-17-20b22==(20)r(20)b24==(20)r(20)---|
D|--------------------------------------------------|
A|--------------------------------------------------|
E|--------------------------------------------------|
 |
 |  H                       Q.                    E
e|--------------------------------------------------|
B|--------------------------------------------------|
G|--------------------------3---------------------x-|
D|--6-----------------------3---------------------x-|
A|--6-----------------------1---------------------x-|
E|--4-----------------------------------------------|

  C5
   E     S S   E  S S  +S  S E   +S  S  S  S
   |     | |   |  | |   |  | |    |  |  |  |
   /     x x   /  x /   /  x /    /  /  /  /
                ~~~~~~~~~~~~
    S  S  E    +Q       +Q         S  S  S  S
e|-------20---(20)-----(20)-------15-20-19-20-|
B|--------------------------------------------|
G|-17-20--------------------------------------|
D|--------------------------------------------|
A|--------------------------------------------|
E|--------------------------------------------|
 |
 |  H                   +E    S S  E     S  S
e|--------------------------------------------|
B|--------------------------------------------|
G|--5-------------------(5)---x-x--5-----x--x-|
D|--5-------------------(5)---x-x--5-----x--x-|
A|--3-------------------(3)---x-x--3-----x--x-|
E|--------------------------------------------|

   E     S  S  E        S  S +S  S  E    +S  S  S  S
   |     |  |  |        |  |  |  |  |     |  |  |  |
   /     x  x  /        x  /  /  x  /     /  /  /  /
    S  S  S  S  S  T  T  S  S  S  S  S  S  S  S  S  S
e|-15-18-16-18-15-16p15----15-------15----15----15-----|
B|----------------------18----16-18----16----16----16--|
G|-----------------------------------------------------|
D|-----------------------------------------------------|
A|-----------------------------------------------------|
E|-----------------------------------------------------|
 |
 |  E     S  S  E        S  S  E     S  S  E     S  S
e|-----------------------------------------------------|
B|-----------------------------------------------------|
G|--5-----x--x--5--------x--x--5-----x--x--5-----x--x--|
D|--5-----x--x--5--------x--x--5-----x--x--5-----x--x--|
A|--3-----x--x--3--------x--x--3-----x--x--3-----x--x--|
E|-----------------------------------------------------|

                 G5
           Q.    S S  Q.    E
           |     | |  |     |
           /     x x  /     x
                       ~~~
    a      +H          Q.    E
e|-19b20==(19)r-------19----20b22==|
B|---------------------------------|
G|---------------------------------|
D|---------------------------------|
A|---------------------------------|
E|---------------------------------|
 |
 |          H          H
e|---------------------------------|
B|---------------------------------|
G|----------5----------------------|
D|----------5----------5-----------|
A|----------3----------5-----------|
E|---------------------3-----------|

  F5           Eb5           Ab5               Bb5
    H           H             H                 H
    |           |             |                 |
    /           /             /                 /
                               ~~~               ~~~
    +Q     E  E  E  E  E  E    Q.    T  T  T  T  Q.    S  S
e|-(20)r--20-19-20-15----15-|-16----15h16p15----15-------15-|
B|--------------------16----|----------------18-------18----|
G|--------------------------|-------------------------------|
D|--------------------------|-------------------------------|
A|--------------------------|-------------------------------|
E|--------------------------|-------------------------------|
 |
 |   H           H             H                 H
e|--------------------------|-------------------------------|
B|--------------------------|-------------------------------|
G|---------------8----------|--------------------3----------|
D|---3-----------8----------|--6-----------------3----------|
A|---3-----------6----------|--6-----------------1----------|
E|---1----------------------|--4----------------------------|

  C5
           E             E  E S S  +E    S  S +Q
           |             |  | | |   |    |  |  |
           x             /  / x /   /    x  /  /
                          ~~~~~~~~~~~~~~~             ~~~
    a      +E    a       +Q.        +E    S  S  S  S  E
e|-18b20==(18)r(18)b20==(18)-------(18)r-15----15-------|
B|------------------------------------------16----16----|
G|---------------------------------------------------17-|
D|------------------------------------------------------|
A|------------------------------------------------------|
E|------------------------------------------------------|
|
 |          H                       +E    S  S  E     E
e|------------------------------------------------------|
B|------------------------------------------------------|
G|----------5-----------------------(5)---x--x--5-----x-|
D|----------5-----------------------(5)---x--x--5-----x-|
A|----------3-----------------------(3)---x--x--3-----x-|
E|------------------------------------------------------|

                                                                      G5
   +E   E     E     S  S +E     S  S +Q                  S   S S S Q   H
    |   |     |     |  |  |     |  |  |                  |   | | | |   |
    /   /     /     x  /  /     x  /  /                  x   x x x /   /
  ~~~~~~                                                                ~~~
    +E   S  S  S  S  S  S  S  S  S  S  S  S  E    a      +H             Q.    E
e|---------------------------------------------|-19b20==(19)r----------19----20b22==|
B|---------------------------------------------|------------------------------------|
G|-(17)-15-17-17-15----------------------------|------------------------------------|
D|------------------17-16-15-15-15-13-15-13----|------------------------------------|
A|------------------------------------------15-|------------------------------------|
E|---------------------------------------------|------------------------------------|
 |
 |   E   E     E     S  S  E     E     Q                  H             H
e|---------------------------------------------|------------------------------------|
B|---------------------------------------------|------------------------------------|
G|---5---5-----5-----x--x--5-----5-----5-------|----------5-------------------------|
D|---5---5-----5-----x--x--5-----5-----5-------|----------5-------------5-----------|
A|---3---3-----3-----x--x--3-----3-----3-------|----------3-------------5-----------|
E|---------------------------------------------|------------------------3-----------|

  F5                Eb5           Ab5               Bb5
    S   S S S  Q     H             H                 S  S Q.
    |   | | |  |     |             |                 |  | |
    x   x x x  /     /             /                 x  x /
                                    ~~~               ~~~
    +Q          E  E  E  E  E  E    Q.    T  T  T  T  Q.        S  S
e|-(20)r-------20-19-20-15----15-|-16----15h16p15----15-----------15-|
B|-------------------------16----|----------------18-----------18----|
G|-------------------------------|-----------------------------------|
D|-------------------------------|-----------------------------------|
A|-------------------------------|-----------------------------------|
E|-------------------------------|-----------------------------------|
 |
 |   H                H             H                 H
e|-------------------------------|-----------------------------------|
B|-------------------------------|-----------------------------------|
G|--------------------8----------|--------------------3--------------|
D|---3----------------8----------|--6-----------------3--------------|
A|---3----------------6----------|--6-----------------1--------------|
E|---1---------------------------|--4--------------------------------|

  C5
   E        E        E           S  S +E     S  S    +Q
   |        |        |           |  |  |     |  |     |
   /        /        /           x  /  /     x  /     /
    T  T  S  T  T  S  T  T  T  T  S  S  S  S  S  T  T  S  S  a      +S   +S
e|-15h16h18-15h16h18-15h16h18p16p15----16----15h16p15----15--------------------|
B|----------------------------------18----18----------18----18b20==(18)r(18)---|
G|-----------------------------------------------------------------------------|
D|-----------------------------------------------------------------------------|
A|-----------------------------------------------------------------------------|
E|-----------------------------------------------------------------------------|
 |
 |  W
e|-----------------------------------------------------------------------------|
B|-----------------------------------------------------------------------------|
G|--5--------------------------------------------------------------------------|
D|--5--------------------------------------------------------------------------|
A|--3--------------------------------------------------------------------------|
E|-----------------------------------------------------------------------------|

  +E      E  E     S  S +E            S  S +Q
   |      |  |     |  |  |            |  |  |
   /      /  /     x  /  /            x  /  /
                                  ~~~~~                   ~~~~
    S   S  E  S  S  S  S  S      +S   +E     S      +S   +E
e|--------------------15-15b16==(15)r(15)----------------------|
B|-16-----18-16-18-16-----------------------15b16==(15)r(15)---|
G|-----17------------------------------------------------------|
D|-------------------------------------------------------------|
A|-------------------------------------------------------------|
E|-------------------------------------------------------------|
 |
 | +H                    +E            S  S  E            S  S
e|-------------------------------------------------------------|
B|-------------------------------------------------------------|
G|-(5)-------------------(5)-----------x--x--5------------x--x-|
D|-(5)-------------------(5)-----------x--x--5------------x--x-|
A|-(3)-------------------(3)-----------x--x--3------------x--x-|
E|-------------------------------------------------------------|

                  G5             F5           Eb5
           H       H               H           H
           |       |               |           |
           /       /               /           /
                   ~~~
    a      +H       Q.    E        +Q     E  E  E  E  E  E
e|-19b20==(19)r----19----20b22==|=(20)r--20-19-20-15----15-|
B|------------------------------|--------------------16----|
G|------------------------------|--------------------------|
D|------------------------------|--------------------------|
A|------------------------------|--------------------------|
E|------------------------------|--------------------------|
 |
 |          H       H               H           H
e|------------------------------|--------------------------|
B|------------------------------|--------------------------|
G|----------5-------------------|---------------8----------|
D|----------5-------5-----------|---3-----------8----------|
A|----------3-------5-----------|---3-----------6----------|
E|------------------3-----------|---1----------------------|

  H.=H
  Ab5                   Bb5
   H                      H
   |                      |
   /                      /
   ~~~
         |--3--|
    Q.    S  S  S  a      +Q.    +S   S
e|-16----15-----------------------------|
B|----------18-16-18b20==(18)r==(18)-16-|
G|--------------------------------------|
D|--------------------------------------|
A|--------------------------------------|
E|--------------------------------------|

         C5
           W                    +W                           W
           |                     |
           /                     /
                                  >
                        ~~~~~~~~~~~~~~~~~~~~~~~
    a      +E   +Q.    +H        +Q    +Q        +Q    +Q     W
e|----------------------------|-----------------------------|------*|
B|-15b17==(15)r(15)---(15)----|-(15)--(15)b16===(15)r=(15)--|------*|
G|----------------------------|-----------------------------|------*|
D|----------------------------|-----------------------------|------*|
A|----------------------------|-----------------------------|------*|
E|----------------------------|-----------------------------|------*|

Duration Legend
---------------
W - whole; H - half; Q - quarter; E - 8th; S - 16th; T - 32nd; X - 64th; a - acciaccatura
+ - note tied to previous; . - note dotted; .. - note double dotted
Uncapitalized letters represent notes that are staccato (1/2 duration)
Irregular groupings are notated above the duration line
Duration letters will always appear directly above the note/fret number it represents the
duration for.  Duration letters with no fret number below them represent rests.  Multi-
bar rests are notated in the form Wxn, where n is the number of bars to rest for.  Low
melody durations appear below the staff

Tablature Legend
----------------
 h   - hammer-on
 p   - pull-off
 b   - bend
 pb  - pre-bend
 r   - bend release (if no number after the r, then release immediately)
 /  - slide into or out of (from/to "nowhere")
 s   - legato slide
 S   - shift slide
  - natural harmonic
[n]  - artificial harmonic
n(n) - tapped harmonic
 ~   - vibrato
 tr  - trill
 T   - tap
 TP  - trem. picking
 PM  - palm muting
n/  - tremolo bar dip; n = amount to dip
 n  - tremolo bar down
 n/  - tremolo bar up
/n  - tremolo bar inverted dip
 =   - hold bend; also acts as connecting device for hammers/pulls
 <>  - volume swell (louder/softer)
 x   - on rhythm slash represents muted slash
 o   - on rhythm slash represents single note slash
Suggest correction
comments
print report bad tab
19 comments total. Showing first comments.
0 reply
Slash_Rules 10 Jul 21, 2004 12:00 AM

how long did this take to tab!!!

0 reply
JoeBoy779 10 Aug 31, 2004 12:00 AM

That's awesome! I would vote 5 stars but it don' work on my PC rock on Gnr!

0 reply
JoeBoy779 10 Dec 20, 2004 12:00 AM

actually...naa

guest
You may want to rate the tab now too:
select rating
Wanna post a correction for this tab? Suggest correction