Oops, an error
Loading. Please wait.

November Rain Tab

version 3
266,836 views 324 this week
7 commentsread comments
1 2 3 4 5
x 14
add to favorites
launch autoscroll
font size
0
reset
how to read this tab
guitar tuner
Autoscroll
slow
fast
+/-
esc
set tempo
stop
Help us to improve Ultimate-Guitar.com Take our survey!
×
Tuning
D# G# C# F# A# D#
Gtr I - 'Piano Arr. For Guitar'
Gtr II - 'clean electric'
Gtr III - 'steel string acoustic'
Gtr IV, V, VI - 'dist electric'


[Intro]

  Gtr I
eb|------12h13----|-5------5-7--8-|-5------5-7-8-7-5---|-5------5-------|
Bb|---------------|-5--6-8--------|-5--6-8-----------8-|-5--6-8---8---6-|
Gb|---------------|-5-------------|-5------------------|-5--------------|
Db|---------------|---------------|--------------------|-0----------0---|
Ab|---------------|-8-------------|-7------------------|----------------|
Eb|-1-------------|---------------|--------------------|----------------|


eb|----------------|-5--5--7--8--|------------5-------|----8-------3---|
Bb|-5--5-6-8-6-5-6-|-5-----------|------5-6-8---8-6-5-|-5----8---5---3-|
Gb|-5--------------|-5-----------|----7---------------|-5--------------|
Db|-5--------------|-------------|-0------------------|-5--------------|
Ab|-3--------------|-8-----------|--------------------|-3------3-------|
Eb|----------------|-------------|--------------------|----------------|


eb|---0---------0---|-5------5-7-8-7-5-7-|-8--7-5---------|-5------5----------|
Bb|-----1---3-------|-5--6-8-------------|--------8-6-5---|-5--6-8---8---6-5--|
Gb|-----------------|-5------------------|--------------7-|-5-----------------|
Db|-----------------|--------------------|----------------|-0----------0------|
Ab|-3-----3---3---3-|-8------------------|-7--------------|-------------------|
Eb|-----------------|--------------------|----------------|-------------------|


eb|----8-----3-----|-----------------|----------|-5--5--5--5---|-5--5--5--5--|
Bb|-5----5-----3---|-5---5---3---5---|-1--------|-5--5--5--5---|-5--5--5--5--|
Gb|-5----5-----5---|-5---5---5---5---|-0--------|-5--5--5--5---|-5--5--5--5--|
Db|-5--------------|-----------------|-2--------|--------------|-0--0--0--0--|
Ab|-3------3-----3-|---3---3---3---3-|-3--------|-8--8--8--8-7-|-------------|
Eb|----------------|-----------------|----------|--------------|-------------|


  Gtr II
eb|-------------|--------------|-5--5--7--8--|
Bb|-5--5--6--6--|--5--5--3-----|-5--5--------|
Gb|-5--5--5--5--|--5--5--5--5--|-5--5--------|
Db|-5--5--------|--------------|-------------|
Ab|-3--3--------|--------------|-8--8--------|
Eb|-------------|--------------|-------------|


eb|-5--5--5-----|---------------|---------------|
Bb|-5--5--5--6--|-5--5----5-6-3-|--5--5--3------|
Gb|-5--5--5-----|-5--5----------|--5--5--5--5---|
Db|-0--0--0-----|-5--5----------|---------------|
Ab|-------------|-3--3--3-------|---------------|
Eb|-------------|---------------|---------------|


 [Verse 1]
 
eb|-5--5--5--5---|-5--5--5--5--|-----------------|---------------|-5--5--7--8--|
Bb|-5--5--5--5---|-5--5--5--5--|-5---5----6---6--|--5---5--3-----|-5--5--------|
Gb|-5--5--5--5---|-5--5--5--5--|-5---5----5---5--|--5---5--5--5--|-5--5--------|
Db|--------------|-0--0--0--0--|-5---5-----------|---------------|-------------|
Ab|-8--8--8--8-7-|-------------|-3---3-----------|---------------|-8--8--------|
Eb|--------------|-------------|-----------------|---------------|-------------|
  |
  | Gtr II
eb|--------------|-------------|-----------------|---------------|-------------|
Bb|--------------|-------------|-------1-(1)-----|-(1)-----------|-------------|
Gb|--------------|-------------|-----0-----------|---------------|-------------|
Db|--------------|-------------|---2-------------|---------------|-------------|
Ab|--------------|-------------|-3---------------|---------------|-------------|
Eb|--------------|-------------|-----------------|---------------|-------------|


                                                      [Chourus]
eb|-5--5--5-----|-------------------|---------------||-----------|-------|
Bb|-5--5--5--6--|-5---5-------5-6-3-|--5---5--3-----||-----------|-------|
Gb|-5--5--5-----|-5---5-------------|--5---5--5--5--||-----------|-------|
Db|-0--0--0-----|-5---5-------------|---------------||-----------|-------|
Ab|-------------|-3---3----3--------|---------------||-----------|-------|
Eb|-------------|-------------------|---------------||-----------|-------|
  |
eb|-------------|-------------------|---------------||-^1--------|-^3----|
Bb|-------------|-1-----------------|---------------||-^3--------|-^3----|
Gb|-------------|---0---------------|---------------||-^2--------|-^0----|
Db|-------------|-----2-------------|---------------||-^0--------|-^0----|
Ab|-------------|-------3-(3)-------|-(3)-----------||-----------|-^2----|
Eb|-------------|-------------------|---------------||-----------|-^3----|


  Gtr II
eb|-----------------------|-----------------------|-^1------------|-^3---------|
Bb|---------1-(1)---------|-(1)-------------------|-^3------------|-^3---------|
Gb|-------0---------------|-----------------------|-^2------------|-^0---------|
Db|---2-------------------|-----------------------|-^0------------|-^0---------|
Ab|-3---------------------|-----------------------|---------------|-^2---------|
Eb|-----------------------|-----------------------|---------------|-^3---------|
  |
  | Gtr III
eb|-----0-----------0-----|--0----0---------0-----|-------0-------|------3-----|
Bb|-8-----8----6------6---|---------5---3-----3---|--3--6---6-----|----3-------|
Gb|---0-----0-----0-----0-|-----0-----0---0-----0-|------------2--|--0---------|
Db|-----------------------|-----------------------|---------------|------------|
Ab|-----------------------|-----------------------|---------------|------------|
Eb|-----------------------|-----------------------|---------------|------------|


eb|-^0-------------------|-(0)-------------------||
Bb|-^1-------------------|-(1)-------------------||
Gb|-^0-------------------|-(0)-------------------||
Db|-^2-------------------|-(2)-------------------||
Ab|-^3-------------------|-(3)-------------------||
Eb|----------------------|-----------------------||
  |
eb|------0---------0-----|--0----0---------0-----||
Bb|--8-----8---6-----6---|---------5---3-----3---||
Gb|----0-----0---0-----0-|-----0-----0---0-----0-||
Db|----------------------|-----------------------||
Ab|----------------------|-----------------------||
Eb|----------------------|-----------------------||


[Verse 2]

eb|-^1--------------|----------------|
Bb|-^1--------------|----------------|
Gb|-^2--------------|----------------|
Db|-^3--------------|----------------|
Ab|-^3--------------|----------------|
Eb|-^1--------------|----------------|
  |
eb|--0--------------|------0-----8---|
Bb|----6------------|----6---6-8-----|
Gb|------5-(5)------|-7--------------|
Db|-----------------|----------------|
Ab|-----------------|----------------|
Eb|-----------------|----------------|


eb|-------3---------1---|-------0---------0-----|
Bb|---5---------3-------|-1---------3---3---3-1-|
Gb|-0-------0-0-------0-|---0-----0-------------|
Db|---------------------|-----------------------|
Ab|---------------------|-----------------------|
Eb|---------------------|-----------------------|
  |
eb|-----0---------0-----|-0---0-----------0-----|
Bb|-8-----8---6-----6---|-------5---3---3---3-1-|
Gb|---0---------0-------|---0---------0---------|
Db|---------------------|-----------------------|
Ab|---------------------|-----------------------|
Eb|---------------------|-----------------------|


eb|-0-1------(1)----|-^1--------------|
Bb|-----------------|-^3--------------|
Gb|-----------------|-^2--------------|
Db|-----------------|-^0--------------|
Ab|-----------------|-----------------|
Eb|-----------------|-----------------|
  |
eb|-0---------------|-------0-----8---|
Bb|---6-------------|-----6---6-8-----|
Gb|------5----------|--7--------------|
Db|-----------------|-----------------|
Ab|-----------------|-----------------|
Eb|-----------------|-----------------|


eb|-------3---------1---|-------0---------0-----|-0-1------(1)-----|-^1---------|
Bb|---5---------3-------|-1---------3---3---3-1-|------------------|-^3---------|
Gb|-0-------0-0-------0-|---0-----0---0---------|------------------|-^2---------|
Db|---------------------|-----------------------|------------------|-^0---------|
Ab|---------------------|-----------------------|------------------|------------|
Eb|---------------------|-----------------------|------------------|------------|
  |
eb|-----0---------0-----|-0---0-----------0-----|--------0---------|------3-----|
Bb|-8-----8---6-----6---|-------5---3-------3---|-3----6----6------|----3-------|
Gb|---0-----0---0-----0-|---0-----0-----0-----0-|---------------2--|--0---------|
Db|---------------------|-----------------------|------------------|------------|
Ab|---------------------|-----------------------|------------------|------------|
Eb|---------------------|-----------------------|------------------|------------|


eb|-------3---------1---|-------0-------0-----||
Bb|---5---------3-------|-1---------3-3---3-1-||
Gb|-0-------0-0-------0-|---0-----0-----------||
Db|---------------------|---------------------||
Ab|---------------------|---------------------||
Eb|---------------------|---------------------||
  |
eb|-----0---------0-----|-0---0---------0-----||
Bb|-8-----8---6-----6---|-------5---3-----3---||
Gb|---0-----0---0-----0-|---0-----0---0-----0-||
Db|---------------------|---------------------||
Ab|---------------------|---------------------||
Eb|---------------------|---------------------||


[Chorus]

eb|-^1------------|-^3---------------|
Bb|-^3------------|-^3---------------|
Gb|-^2------------|-^0---------------|
Db|-^0------------|-^0---------------|
Ab|---------------|-^2---------------|
Eb|---------------|-^3---------------|
  |
eb|-------0-------|------3-0---0---0-|
Bb|--3--6---6-----|----3-----6---3---|
Gb|------------7--|--0---------------|
Db|---------------|------------------|
Ab|---------------|------------------|
Eb|---------------|------------------|


eb|-----------------0---|---------------------|-^1------------|-^3---------------|
Bb|-------------------3-|-1-------------------|-^3------------|-^3---------------|
Gb|-----------0---------|---------------------|-^2------------|-^0---------------|
Db|---------------------|---------------------|-^0------------|-^0---------------|
Ab|---------------------|---------------------|---------------|-^2---------------|
Eb|---------------------|---------------------|---------------|-^3---------------|
  |
eb|-----0---------0-----|-0---0---------0-----|-------0-------|--3-----0---0---0-|
Bb|-8-----8---6-----6---|-------5---3-----3---|--3--6---6-----|------3---6---3---|
Gb|---0-----0---0-----0-|---0-----0---0-----0-|------------7--|----0-------------|
Db|---------------------|---------------------|---------------|------------------|
Ab|---------------------|---------------------|---------------|------------------|
Eb|---------------------|---------------------|---------------|------------------|


                                               [Pre-Chorus]
eb|-----------------0---|---------------------||--^1-----------|-^3-----||
Bb|-------------------3-|-1-------------------||o-^1-----------|-^3----o||
Gb|-----------0---------|---------------------||--^2-----------|-^0-----||
Db|---------------------|---------------------||--^3-----------|-^0-----||
Ab|---------------------|---------------------||o-^3-----------|-^2----o||
Eb|---------------------|---------------------||--^1-----------|-^3-----||
  |
eb|-----0---------0-----|-0---0---------0-----||-----0---------|--------||
Bb|-8-----8---6-----6---|-------5---3-----3---||o--6---6-------|-^3----o||
Gb|---0-----0---0-----0-|---0-----0---0-----0-||---------------|-^0-----||
Db|---------------------|---------------------||---------------|-^0-----||
Ab|---------------------|---------------------||o--------------|-^2----o||
Eb|---------------------|---------------------||---------------|-^3-----||


[Bridge]

E5    F5      C5          E5     F5      D5/A

  Gtr II
eb|-^0----^1----|-^0--------|--------^1----|-^1---------------------|
Bb|-^0----^1----|-^1--------|--------^1----|-^3---------------------|
Gb|-^0----^2----|-^0--------|--------^2----|-^2---------------------|
Db|-^2----^3----|-^2--------|-----2--^3----|-^0---------------------|
Ab|-^2----^3----|-^3--------|---2----^3----|------------------------|
Eb|-^0----^1----|-----------|-0------^1----|------------------------|
  |
  | Gtr V
eb|-------------|-----------|--------------|------------------------|
Bb|-------------|-----------|--------------|-----3-5-5b6r(5)-3------|
Gb|-------------|-----------|--------------|-------------------4b5r=|
Db|-------------|-----------|--------------|------------------------|
Ab|-------------|-----------|--------------|------------------------|
Eb|-------------|-----------|--------------|------------------------|


  E5       F5       C5
 
eb|-----------------|------------------------|
Bb|-----------------|---------1-(1)----------|
Gb|-----------------|-------0----------------|
Db|-------2------3--|-----2------------------|
Ab|-----2------3----|--3---------------------|
Eb|--0-------1------|------------------------|
  |
  |  ~~~~~~~~~~~~~~~~~~~~~~~~~~~~~~~~~~~~
eb|-----------------|------------------------|
Bb|-----------------|------------------------|
Gb|-(4)-------------|-/5-------------(5)-4b5r|
Db|-----------------|------------------------|
Ab|-----------------|------------------------|
Eb|-----------------|------------------------|


  E5     F5      G5

eb|-^0-----^1----|-^3--------|-----------3-----------||
Bb|-^0-----^1----|-^3--------|-------------3---------||
Gb|-^0-----^2----|-^0--------|---------0-----0-------||
Db|-^2-----^3----|-^0--------|-------0---------0-----||
Ab|-^2-----^3----|-^2--------|-----2-----------------||
Eb|-^0-----^1----|-^3--------|--3--------------------||
  |
  |  ~~~
eb|--------------|-----------|-----------------------||
Bb|--------------|-----------|-----------------------||
Gb|-(4)-----2----|--0--------|-(0)-------------------||
Db|--------------|-----------|-----------------------||
Ab|--------------|-----------|-----------------------||
Eb|--------------|-----------|-----------------------||


[Solo]

  F
 
  Gtr V
eb|--------------------------------8------------------|
Bb|-8pb10======(10)r(8)b10==(10)-(10)-(10)-(10)r(8)p6-|
Gb|---------------------------------------------------|
Db|---------------------------------------------------|
Ab|---------------------------------------------------|
Eb|---------------------------------------------------|
  |
  | Gtr IV
eb|-------------1-----------(1)-----------------------|
Bb|----------1----------------------------------------|
Gb|--------2-------------------------------2----------|
Db|-3----------------------------------3--------------|
Ab|------------------------------3--------------------|
Eb|---------------------------------------------------|


  Dm                                                          C
                                                                ~~~         ~~~
eb|-----------------------------------8-----------------------|-----------8-(8)-----------------|
Bb|-8b10==(8)-(8)----(8)r(8)b10==(8)-(8)-(8)-(8)r(8)-5b7==(5)r|=(5)--------------5b6r(5)b6-(5)--|
Gb|-----------------------------------------------------------|---------------------------------|
Db|-----------------------------------------------------------|---------------------------------|
Ab|-----------------------------------------------------------|---------------------------------|
Eb|-----------------------------------------------------------|---------------------------------|
  |
eb|-------------------1----------(1)--------------------------|---------------------------------|
Bb|---------------3---------------------------3---------------|--1------------------------------|
Gb|------------2--------------------------2-------------------|-----0---------------------------|
Db|-0---------------------------------0-----------------------|-------0h2---(2)-------------0h2-|
Ab|-----------------------------------------------------------|---------------------------------|
Eb|-----------------------------------------------------------|---------------------------------|


eb|---------------------------|-----------------------------8----------------|
Bb|--5--------------8---------|-8pb10======(8)r(8)b10==(8)-(8)-(8)-(8)r(8)p6-|
Gb|-------7p5--7s=9---9s7-7-5-|----------------------------------------------|
Db|---------------------------|----------------------------------------------|
Ab|---------------------------|----------------------------------------------|
Eb|---------------------------|----------------------------------------------|
  |
eb|---------------------------|-------------1----------(1)-------------------|
Bb|---------------------------|----------1-----------------------------------|
Gb|--0--------(0)---------0---|--------2----------------------------2--------|
Db|-----------------0h==2-----|-3-------------------------------3-------2----|
Ab|---------------------------|-----------------------------3----------------|
Eb|---------------------------|----------------------------------------------|


  Dm
 
eb|-----------------------------------8-8b10==(8)r(8)--|
Bb|-8b10r(8)b10==(8)---(8)r(8)b10-(8)------------------|
Gb|----------------------------------------------------|
Db|----------------------------------------------------|
Ab|----------------------------------------------------|
Eb|----------------------------------------------------|
  |
eb|---------------------1----------------------0-------|
Bb|------------------3-----------------------------3---|
Gb|---------------2-------------------2----------------|
Db|-0------------------------------0-------------------|
Ab|----------------------------------------------------|
Eb|----------------------------------------------------|


eb|-10b12========(12)r==(10)-8h10p8----|
Bb|---------------------------------10-|
Gb|------------------------------------|
Db|------------------------------------|
Ab|------------------------------------|
Eb|------------------------------------|
  |
  | Gtr II
eb|------------------------------------|
Bb|------------1--(1)------------------|
Gb|----------0-------------------------|
Db|--------2---------------------------|
Ab|--3---------------------------------|
Eb|------------------------------------|
  |
  | Gtr IV
eb|------------------------------------|
Bb|------------------------------------|
Gb|----------0------------0------------|
Db|--------2-------0h=2-----------0h=2-|
Ab|--3---------------------------------|
Eb|------------------------------------|


               ~~~~~                             ~~
eb|-8------------------13p=12----13p12----13b15-|-13-------(13)----12-13-12h13p12--|
Bb|---11b13====(13)r----------13-------13-------|---------------15-----------------|
Gb|---------------------------------------------|----------------------------------|
Db|---------------------------------------------|----------------------------------|
Ab|---------------------------------------------|----------------------------------|
Eb|---------------------------------------------|----------------------------------|
  |
eb|-0-------------------------------------------|--1-----0---1---0-----------------|
Bb|----------1----------------------------------|--3---3---------------3-----------|
Gb|--------------0------------------------------|--2----------------------2--------|
Db|------------------2--------------------------|--0-------------------------------|
Ab|---------------------3-----------------------|----------------------------------|
Eb|---------------------------------------------|----------------------------------|
  |
eb|---------------------------------------------|--------0---1---0-----------------|
Bb|---------------------------------------------|------3---------------3-----------|
Gb|-0------------------(0)-----------0----------|----2--------------------2--------|
Db|----------------------------0h=2-------------|--0-------------------------------|
Ab|---------------------------------------------|----------------------------------|
Eb|---------------------------------------------|----------------------------------|


   ~~~                                                 ~~            ~~~~~
eb|------------12-13b15==(15)---(15)r(13)-13-12-|-12b13-12----19b20==(20)r---19-19-|
Bb|-15------15----------------------------------|----------------------------------|
Gb|---------------------------------------------|----------------------------------|
Db|---------------------------------------------|----------------------------------|
Ab|---------------------------------------------|----------------------------------|
Eb|---------------------------------------------|----------------------------------|
  |
eb|-^3-------------3----------------------------|----------------------------------|
Bb|-^3-------3----------------3-----------------|--------------1------(1)----------|
Gb|-^0----0-----------------------0-------------|----------0-----------------------|
Db|-^0------------------------------------------|--------2-------------------------|
Ab|-^2------------------------------------------|--3-------------------------------|
Eb|-^3------------------------------------------|----------------------------------|
  |
eb|-------3-----------------------3-------------|----------------------------------|
Bb|-----3----------------------------------0----|----------1-----------------------|
Gb|--0-------0----(0)---------0-----------------|--------0-------------------------|
Db|---------------------------------------------|--2-------------------------------|
Ab|---------------------------------------------|----------------------------------|
Eb|---------------------------------------------|----------------------------------|


eb|-19s17-17-17s15-15-15s13-13--13s12-12-12h13p12----|
Bb|-----------------------------------------------15-|
Gb|--------------------------------------------------|
Db|--------------------------------------------------|
Ab|--------------------------------------------------|
Eb|--------------------------------------------------|
  |
eb|--0-----------------------------------------------|
Bb|--------1-----------------------------------------|
Gb|--------------0-----------------------------------|
Db|--------------------2-----------------------------|
Ab|--------------------------3-----------------------|
Eb|--------------------------------------------------|
  |
eb|--------------------------------------------------|
Bb|--------------1----------(1)----------------------|
Gb|--------0---------------------------------------0-|
Db|--2------------------------------------2----------|
Ab|---------------------------------3----------------|
Eb|--------------------------------------------------|


      ~~
eb|-12h13-------12-13-12h13p12-10----12----|
Bb|-------------------------------13----13-|
Gb|----------------------------------------|
Db|----------------------------------------|
Ab|----------------------------------------|
Eb|----------------------------------------|
  |
eb|----^1-----0--1-------------------------|
Bb|----^3---3-------------------3----------|
Gb|----^2-2------------2--------------2----|
Db|----^0----------------------------------|
Ab|----------------------------------------|
Eb|----------------------------------------|
  |
eb|-----------0--1-----0-------------------|
Bb|---------3-------------------3----------|
Gb|-------2---------------------------2----|
Db|-----0----------------------------------|
Ab|----------------------------------------|
Eb|----------------------------------------|


eb|-10h12p10----10---------------------------------------------|
Bb|----------13----12h13-12h13p12p10----12----10---------------|
Gb|----------------------------------12----12----10-10s12-10s9-|
Db|------------------------------------------------------------|
Ab|------------------------------------------------------------|
Eb|------------------------------------------------------------|
  |
eb|-^3---------------------------------------------------------|
Bb|-^3---------------------------------------------------------|
Gb|-^0---------------------------------------------------------|
Db|-^0---------------------------------------------------------|
Ab|-^2---------------------------------------------------------|
Eb|-^3---------------------------------------------------------|
  |
eb|-----------------3--------------------------3---------------|
Bb|-----------3-----------------------------3-----------0------|
Gb|--0-----------------------------0-----0---------------------|
Db|-----------------------0------------------------------------|
Ab|------------------------------------------------------------|
Eb|------------------------------------------------------------|

                         ~~~~
eb|----------------------------------------------|
Bb|-------------------13-(13)-----------------13-|
Gb|-(9)---(9)-12p10s9--------------10h12p10s9----|
Db|----------------------------------------------|
Ab|----------------------------------------------|
Eb|----------------------------------------------|
  |
eb|----------------------------------------------|
Bb|-----------------1-----(1)--------------------|
Gb|--------0-------------------------------------|
Db|-----2----------------------------------------|
Ab|--3-------------------------------------------|
Eb|----------------------------------------------|
  |
eb|----------------------------------------------|
Bb|--------1--------------------1----------------|
Gb|-----0---------------------0------------------|
Db|--2---------------------2---------------------|
Ab|----------------------------------------------|
Eb|----------------------------------------------|

    ~~~~
eb|------------------------------------15------------||
Bb|-(13)-----------------15b17==(17)--(17)-(17)r(15)-||
Gb|-----------10h12p10s9-----------------------------||
Db|--------------------------------------------------||
Ab|--------------------------------------------------||
Eb|--------------------------------------------------||
  |
eb|---0----------------------------------------------||
Bb|--------1-----------------------------------------||
Gb|------------2-------------------------------------||
Db|--------------------0-----------------------------||
Ab|-------------------------------3------------------||
Eb|--------------------------------------------------||
  |
eb|--------------------------------------------------||
Bb|--------1---------------------(1)-----------------||
Gb|------0-------------------------------------------||
Db|---2----------------------------------------------||
Ab|--------------------------------------------------||
Eb|--------------------------------------------------||


[Pre-Chorus]

   F                      G
 
  Gtr V
eb|----------------------|---------------------|
Bb|-13----(13)---(13)b15-|-(15)----------------|
Gb|----------------------|-------------5h7p5---|
Db|----------------------|-------------------7-|
Ab|----------------------|---------------------|
Eb|----------------------|---------------------|


  F                   G
 
eb|-------------------|----------------------|
Bb|-6-5---------------|------6b8==(6)r---6p5-|
Gb|-----5---------5h7-|----------------------|
Db|-------7-(7)-------|-7-5------------------|
Ab|-------------------|----------------------|
Eb|-------------------|----------------------|


  F                  G

eb|----------------|----------------------|
Bb|-6-5------------|----------------------|
Gb|-----5----------|-5h7----(7)---5h7p5---|
Db|-------7-(7)----|------------7-------7-|
Ab|----------------|----------------------|
Eb|----------------|----------------------|


  F                G

eb|----------------|------------------|-------------------||
Bb|-6-5------------|------------------|-------------------||
Gb|-----5----------|-7--9--10--10s12--|-14--16--17--19----||
Db|-------7-(7)----|------------------|-------------------||
Ab|----------------|------------------|-------------------||
Eb|----------------|------------------|-------------------||


[Solo]
 
  Gtr V
   ~~~
eb|-----------------------20--|--------------------------------------20----|
Bb|-18----------20b22====(22)-|-(22)r(20)--(20)--(20)-(20)b22==(22)r----18-|
Gb|---------------------------|--------------------------------------------|
Db|---------------------------|--------------------------------------------|
Ab|---------------------------|--------------------------------------------|
Eb|---------------------------|--------------------------------------------|
  |
  | Gtr III
eb|---------------------------|--------------------------------------------|
Bb|---------------------------|------------------------------------------3-|
Gb|--2-----(2)----------------|---------------------------------------2----|
Db|--------------------3---2--|---0------------------------------0---------|
Ab|---------------------------|--------------------------------------------|
Eb|---------------------------|--------------------------------------------|

   ~~~
eb|-----------18b20==(18)---------|-(18)r--------------------------------------|
Bb|-17----------------------------|-----------------17pb18r====(17)b18==(18)---|
Gb|-------------------------------|--------------------------------------------|
Db|-------------------------------|--------------------------------------------|
Ab|-------------------------------|--------------------------------------------|
Eb|-------------------------------|--------------------------------------------|
  |
eb|-------0-----------------0-----|---0-----0--------------0-------------------|
Bb|--8------8----------6------6---|-----------5---3----------3-----------------|
Gb|-----0------0----------0-----0-|-------0-----0----0-----------0-------------|
Db|-------------------------------|--------------------------------------------|
Ab|-------------------------------|--------------------------------------------|
Eb|-------------------------------|--------------------------------------------|

    ~~~~~
eb|-----------------------------------------------17----|
Bb|-(18)r=====================(17)-------17-18-20----18-|
Gb|-----------------------------------19----------------|
Db|-----------------------------------------------------|
Ab|-----------------------------------------------------|
Eb|-----------------------------------------------------|
  |
eb|---0--------------------------------------------0----|
Bb|----------6-------------------------------6----------|
Gb|----------------5------------------------------------|
Db|-----------------------------------------------------|
Ab|-----------------------------------------------------|
Eb|-----------------------------------------------------|
  |
  | Gtr IV
eb|--12--13----12---------------------------------------|
Bb|---------15----13-15-12-13------12-------------------|
Gb|----------------------------14-----12-14-10-12--9-10-|
Db|-----------------------------------------------------|
Ab|-----------------------------------------------------|
Eb|-----------------------------------------------------|


eb|-----------------------------------------------------------|
Bb|-20-17-18-20-17b18r(17)-17---------------------------------|
Gb|---------------------------19b21==(21)r(19)p17-19p17----17-|
Db|-----------------------------------------------------19----|
Ab|-----------------------------------------------------------|
Eb|-----------------------------------------------------------|
  |
eb|-------------------------0--3-------------------------0----|
Bb|--3-----------6--------------------------6------3----------|
Gb|-----------------------------------------------------------|
Db|-----------------------------------------------------------|
Ab|-----------------------------------------------------------|
Eb|-----------------------------------------------------------|

            ~~~~~~~
eb|--------------------------------------------------|
Bb|-20--------------------20-------------------------|
Gb|----17---17-(17)----17----17---17-(17)-17----17---|
Db|-----------------19-----------------------19------|
Ab|--------------------------------------------------|
Eb|--------------------------------------------------|
  |
eb|----------0---------------------0-----------------|
Bb|--8-----------8---------6-----------6-------------|
Gb|-------0----------0----------0-------------0------|
Db|--------------------------------------------------|
Ab|--------------------------------------------------|
Eb|--------------------------------------------------|

eb|---------------------------------------------------------------||
Bb|-20b22-20---18h20p18p17-18-17h18p17----17-------20-------------||
Gb|------------------------------------19----19b21----19pb21r(19)-||
Db|---------------------------------------------------------------||
Ab|---------------------------------------------------------------||
Eb|---------------------------------------------------------------||
  |
eb|--0-------0-----------------------------0----------------------||
Bb|-------------5--------------3--------------3-------------------||
Gb|--------0-------------0--------------0-----------0-------------||
Db|---------------------------------------------------------------||
Ab|---------------------------------------------------------------||
Eb|---------------------------------------------------------------||



[Verse 3] 
          ~~~
eb|-----------------|-----------------|------------------------|
Bb|-----------------|-----------------|------------------------|
Gb|-(19)---17-------|-----------------|------------------------|
Db|-----------------|-----------------|------------------------|
Ab|-----------------|-----------------|------------------------|
Eb|-----------------|-----------------|------------------------|
  |
eb|---0-------------|-------0-3-----0-|-----0-----------0------|
Bb|------6----------|-----6-----6-3---|-8-----8----6------6----|
Gb|---------5-------|-----------------|---0-----0-----0-----0--|
Db|-----------------|--0--------------|------------------------|
Ab|-----------------|-----------------|------------------------|
Eb|-----------------|-----------------|------------------------|
  |
eb|-^-1-------------|-^1--------------|------------------------|
Bb|-^-1-------------|-^3--------------|---------1-(1)----------|
Gb|-^-2-------------|-^2--------------|-------0----------------|
Db|-^-3-------------|-^0--------------|---2--------------------|
Ab|-^-3-------------|-----------------|-3----------------------|
Eb|-^-1-------------|-----------------|------------------------|


  Gtr II
eb|-----------------------|-^1-----------|
Bb|-(1)-------------------|-^1-----------|
Gb|-----------------------|-^2-----------|
Db|-----------------------|-^3-----------|
Ab|-----------------------|-^3-----------|
Eb|-----------------------|-^1-----------|
  |
  | Gtr III
eb|--0----0---------0-----|--0-----------|
Bb|---------5---3-----3---|----6---------|
Gb|-----0-----0---0-----0-|------5-------|
Db|-----------------------|--------------|
Ab|-----------------------|--------------|
Eb|-----------------------|--------------|


eb|-^1---------------|-----------0---------|
Bb|-^3---------------|---------1---1-------|
Gb|-^2---------------|-------0---------0---|
Db|-^0---------------|---2-----------------|
Ab|------------------|-3-------------------|
Eb|------------------|---------------------|
  |
eb|--------0-3-----0-|-----0---------0-----|
Bb|------3-----6-3---|-8-----8---6-----6---|
Gb|----2-------------|---0-----0---0-----0-|
Db|--0---------------|---------------------|
Ab|------------------|---------------------|
Eb|------------------|---------------------|


                          [Chorus]
eb|-0-------------------||-^1------------|
Bb|---1-----------------||-^3------------|
Gb|-------0-------------||-^2------------|
Db|---------2-----------||-^0------------|
Ab|-----------3---------||---------------|
Eb|---------------------||---------------|
  |
eb|-0---0---------0-----||-------0-------|
Bb|-------5---3-----3---||-----6---3-----|
Gb|---0-----0---0-----0-||--7---------2--|
Db|---------------------||---------------|
Ab|---------------------||---------------|
Eb|---------------------||---------------|


eb|-^3--------------|-^0-------------------|
Bb|-^3--------------|-^1-------------------|
Gb|-^0--------------|-^0-------------------|
Db|-^0--------------|-^2-------------------|
Ab|-^2--------------|-^3-------------------|
Eb|-^3--------------|----------------------|
  |
eb|--3----0---0---0-|------0---------0-----|
Bb|-----3---6---3---|--8-----8---6-----6---|
Gb|-----------------|----0-----0---0-----0-|
Db|-----------------|----------------------|
Ab|-----------------|----------------------|
Eb|-----------------|----------------------|



  Gtr IV   
  
  G                   C5    G/B
eb|-^0-------------------|-^1------------|-^3----------------|-^0----^3----|
Bb|-^1-------------------|-^3------------|-^3----------------|-^1----^3----|
Gb|-^0-------------------|-^2------------|-^0----------------|-^0----^0----|
Db|-^2-------------------|-^0------------|-^0----------------|-^2----^0----|
Ab|-^3-------------------|---------------|-^2----------------|-^3----^2----|
Eb|----------------------|---------------|-^3----------------|-------------|
  |
eb|--0---0---------0-----|-------0-------|--3--3-3-3-3-3-----|-------------|
Bb|--------5---3-----3---|-----6---3-----|--3--3-3-3-3-3-----|-------------|
Gb|----0-----0---0-----0-|--7---------2--|--0--0-0-0-0-0-----|-------------|
Db|----------------------|---------------|--0--0-0-0-0-0-----|-------------|
Ab|----------------------|---------------|--2--2-2-2-2-2-----|-------------|
Eb|----------------------|---------------|--3--3-3-3-3-3-----|-------------|


   A5    G5(type F5          G5(type 2)
eb|-^0----^3----|-^1--------|-^3--------|
Bb|-^1----^3----|-^1--------|-^3--------|
Gb|-^2----^0----|-^2--------|-^0--------|
Db|-^2----^0----|-^3--------|-^0--------|
Ab|-^0----^2----|-^3--------|-^2--------|
Eb|-------^3----|-^1--------|-^3--------|


  C5    G/B     A5    G       F5          G5
 
eb|-^0----^3----|-^0----^3----|-^1--------|-^3----|
Bb|-^1----^3----|-^1----^3----|-^1--------|-^3----|
Gb|-^0----^0----|-^2----^0----|-^2--------|-^0----|
Db|-^2----^0----|-^2----^0----|-^3--------|-^0----|
Ab|-^3----^2----|-^0----^2----|-^3--------|-^2----|
Eb|-------------|-------^3----|-^1--------|-^3----|


[Instrumental]

  C5
  Gtr II      Gtr I
eb|-0--------||----------------------|-------------------------|
Bb|-1--------||----------------------|-------------------------|
Gb|-0--------||-3--5-3-5-(5)-3-5-3-5-|-5-5--5-7-7-8-(8)-7------|
Db|-2--------||-5--5-5-5-(5)-5-5-5-5-|-6-6--6-8-8-8-(8)-8------|
Ab|-3--------||-3---------3----------|-6-6--6-8-8-8-(8)-8------|
Eb|----------||----------------------|-4-4--4-6-6-6-(6)-8------|
  |
  | Gtr IV
eb|----------||----------------------|-------------------------|
Bb|----------||----------------------|-------------------------|
Gb|----------||----------------------|---------------------x-x-|
Db|----------||----------------------|---------------------x-x-|
Ab|----------||----------------------|---------------------x-x-|
Eb|----------||----------------------|-------------------------|


     C5

eb|-----------------------|------------------------|
Bb|-----------------------|------------------------|
Gb|-3--5--3-5-(5)-3-5-3-5-|--5--5--5-7-7-8-(8)-7---|
Db|-5--5--5-5-(5)-5-5-5-5-|--6--6--6-8-8-8-(8)-8---|
Ab|-3----------3----------|--6--6--6-8-8-8-(8)-8---|
Eb|-----------------------|--4--4--4-6-6-6-(6)-8---|
  |
eb|-----------------------|------------------------|
Bb|-----------------------|------------------------|
Gb|-5---------------------|-(5)--------------------|
Db|-5---------------------|-(5)--------------------|
Ab|-3---------------------|-(3)--------------------|
Eb|-----------------------|------------------------|


     C5

eb|-----------------------|---------------------------|
Bb|-----------------------|---------------------------|
Gb|-3--5--3-5-(5)-3-5-3-5-|--5--5--5-7-7-8-(8)-7------|
Db|-5--5--5-5-(5)-5-5-5-5-|--6--6--6-8-8-8-(8)-8------|
Ab|-3----------3----------|--6--6--6-8-8-8-(8)-8------|
Eb|-----------------------|--4--4--4-6-6-6-(6)-8------|
  |
eb|-----------------------|---------------------------|
Bb|-----------------------|---------------------------|
Gb|-5---------------------|-(5)------------(5)-x--x-x-|
Db|-5---------------------|-(5)------------(5)-x--x-x-|
Ab|-3---------------------|-(3)------------(3)-x--x-x-|
Eb|-----------------------|---------------------------|


     C5

eb|-----------------------|-------------------------------------|
Bb|-----------------------|-------------------------------------|
Gb|-3--5--3-5-(5)-3-5-3-5-|--5---5---------5---7---7-8-(8)-7----|
Db|-5--5--5-5-(5)-5-5-5-5-|--6---6---------6---8---8-8-(8)-8----|
Ab|-3----------3----------|--6---6---------6---8---8-8-(8)-8----|
Eb|-----------------------|--4---4---------4---6---6-6-(6)-8----|
  |
eb|-----------------------|-------------------------------------|
Bb|-----------------------|-------------------------------------|
Gb|-5---------------------|--5-5-x-5-(5)-5---5-5-5-x-5-(5)-5--5-|
Db|-5---------------------|--5-5-x-5-(5)-5---5-5-5-x-5-(5)-5--5-|
Ab|-3---------------------|-------------------------------------|
Eb|-----------------------|-------------------------------------|


  C5          G5            F5          Eb5

  Gtr V
               ~~~
eb|-19b20-------19----20b22-|-(22)--20-19-20--15----15-|
Bb|-------------------------|--------------------16----|
Gb|-------------------------|--------------------------|
Db|-------------------------|--------------------------|
Ab|-------------------------|--------------------------|
Eb|-------------------------|--------------------------|
  |
  | Gtr IV
eb|-------------------------|--------------------------|
Bb|-------------------------|--------------------------|
Gb|--5------x-x-------------|--------------8-----------|
Db|--5------x-x--5----------|---3----------8-----------|
Ab|--3------x-x--5----------|---3----------6-----------|
Eb|--------------3----------|---1----------------------|


  Ab5               Bb5

   ~~~               ~~~
eb|-16----15h16p15----15-------15-|
Bb|----------------18-------18----|
Gb|-------------------------------|
Db|-------------------------------|
Ab|-------------------------------|
Eb|-------------------------------|
  |
eb|-------------------------------|
Bb|-------------------------------|
Gb|--------------------3----------|
Db|--6-----------------3----------|
Ab|--6-----------------1----------|
Eb|--4----------------------------|


  C5                                                    Bb5/CC5

eb|-16-15-16p15----------------15----------------------------|
Bb|-------------18-16----16-18----18-16-18-15-16-18-16-15-16-|
Gb|-------------------17-------------------------------------|
Db|----------------------------------------------------------|
Ab|----------------------------------------------------------|
Eb|----------------------------------------------------------|
  |
eb|----------------------------------------------------------|
Bb|----------------------------------------------------------|
Gb|--5-------------------------------------------------------|
Db|--5-------------------------------------------------------|
Ab|--3-------------------------------------------------------|
Eb|----------------------------------------------------------|

                                                           ~~
eb|-------------------------------------------------------------------|
Bb|-15b16==(16)r(15)b16==(16)r(15)----15-16-18-15--16-18-15-----------|
Gb|--------------------------------17-----------------------17--------|
Db|-------------------------------------------------------------------|
Ab|-------------------------------------------------------------------|
Eb|-------------------------------------------------------------------|
  |
eb|-------------------------------------------------------------------|
Bb|-------------------------------------------------------------------|
Gb|-(5)----------------------------------------(5)--x--x--x--5---x-x--|
Db|-(5)----------------------------------------(5)--x--x--x--5---x-x--|
Ab|-(3)----------------------------------------(3)--x--x--x--3---x-x--|
Eb|-------------------------------------------------------------------|


           G5                F5              Eb5

eb|-19b20----19--------20b22-|-(20)------20-19-20-15----15---|
Bb|--------------------------|-----------------------16------|
Gb|--------------------------|-------------------------------|
Db|--------------------------|-------------------------------|
Ab|--------------------------|-------------------------------|
Eb|--------------------------|-------------------------------|
  |
eb|--------------------------|-------------------------------|
Bb|--------------------------|-------------------------------|
Gb|--5-----------------------|------------------8------------|
Db|--5--------5--------------|---3--------------8------------|
Ab|--3--------5--------------|---3--------------6------------|
Eb|-----------3--------------|---1---------------------------|


  Ab5                   Bb5

eb|-16--------15h16p15----15-------------------|
Bb|--------------------18----------15-16---18--|
Gb|--------------------------------------------|
Db|--------------------------------------------|
Ab|--------------------------------------------|
Eb|--------------------------------------------|
  |
eb|--------------------------------------------|
Bb|--------------------------------------------|
Gb|------------------------3-------------------|
Db|--6---------------------3-------------------|
Ab|--6---------------------1-------------------|
Eb|--4-----------------------------------------|


   C5
   
eb|-15--16-15h16p15-------15-------15-------------------------15-16p=15-------15-------|
Bb|-----------------18-16----16-18----18p16-18-16----15-16-18-----------18-16----16h18-|
Gb|-----------------------------------------------17-----------------------------------|
Db|------------------------------------------------------------------------------------|
Ab|------------------------------------------------------------------------------------|
Eb|------------------------------------------------------------------------------------|
  |
eb|------------------------------------------------------------------------------------|
Bb|------------------------------------------------------------------------------------|
Gb|--5-----------------------------------------------------------(5)-----------x--x----|
Db|--5-----------------------------------------------------------(5)-----------x--x----|
Ab|--3-----------------------------------------------------------(3)-----------x--x----|
Eb|------------------------------------------------------------------------------------|

                                                                    ~~
eb|-15---------------------------------------------------------------------|
Bb|----18-16----15-16-18-15----16-15---------------------------------------|
Gb|----------17-------------17-------17-15-17-(17)-15-13-15-13-15-13-------|
Db|------------------------------------------------------------------12----|
Ab|------------------------------------------------------------------------|
Eb|------------------------------------------------------------------------|
  |
eb|------------------------------------------------------------------------|
Bb|------------------------------------------------------------------------|
Gb|--5-----------------------5-----x-----x------5---------------------5----|
Db|--5-----------------------5-----x-----x------5---------------------5----|
Ab|--3-----------------------3-----x-----x------3---------------------3----|
Eb|------------------------------------------------------------------------|


              G5                F5                Eb5
               ~~~
eb|-19b20-------19--------20b22-|-(22)------20-19---------------------|
Bb|-----------------------------|-------------------------------------|
Gb|-----------------------------|-------------------19b20-------19-17-|
Db|-----------------------------|-------------------------------------|
Ab|-----------------------------|-------------------------------------|
Eb|-----------------------------|-------------------------------------|
  |
eb|-----------------------------|-------------------------------------|
Bb|-----------------------------|-------------------------------------|
Gb|--5------x-x-----------------|--------------------8----------------|
Db|--5------x-x--5--------------|---3-----------x-x--8----------------|
Ab|--3------x-x--5--------------|---3-----------x-x--6----------------|
Eb|--------------3--------------|---1-----------x-x-------------------|


  Ab5             Bb5
eb|---------------------------------------------|
Bb|---------------------------------------------|
Gb|-20--------19-17-20b22r(20)b24==(24)r(20)----|
Db|---------------------------------------------|
Ab|---------------------------------------------|
Eb|---------------------------------------------|
  |
eb|---------------------------------------------|
Bb|---------------------------------------------|
Gb|------------------3-----------------------x--|
Db|--6---------------3-----------------------x--|
Ab|--6---------------1-----------------------x--|
Eb|--4------------------------------------------|


  C5
               ~~~~~~~~~~~~
eb|-------20---(20)-----(20)-------15-20-19-20-|
Bb|--------------------------------------------|
Gb|-17-20--------------------------------------|
Db|--------------------------------------------|
Ab|--------------------------------------------|
Eb|--------------------------------------------|
  |
eb|--------------------------------------------|
Bb|--------------------------------------------|
Gb|--5-------------------(5)---x-x--5-----x--x-|
Db|--5-------------------(5)---x-x--5-----x--x-|
Ab|--3-------------------(3)---x-x--3-----x--x-|
Eb|--------------------------------------------|


eb|-15-18-16-18-15-16p15----15-------15----15----15-----|
Bb|----------------------18----16-18----16----16----16--|
Gb|-----------------------------------------------------|
Db|-----------------------------------------------------|
Ab|-----------------------------------------------------|
Eb|-----------------------------------------------------|
  |
eb|-----------------------------------------------------|
Bb|-----------------------------------------------------|
Gb|--5-----x--x--5--------x--x--5-----x--x--5-----x--x--|
Db|--5-----x--x--5--------x--x--5-----x--x--5-----x--x--|
Ab|--3-----x--x--3--------x--x--3-----x--x--3-----x--x--|
Eb|-----------------------------------------------------|


          G5                F5          Eb5
               ~~~
eb|-19b20-------19----20b22-|-(22)--20-19-20-15----15-|
Bb|-------------------------|-------------------16----|
Gb|-------------------------|-------------------------|
Db|-------------------------|-------------------------|
Ab|-------------------------|-------------------------|
Eb|-------------------------|-------------------------|
  |
eb|-------------------------|-------------------------|
Bb|-------------------------|-------------------------|
Gb|--5----------------------|--------------8----------|
Db|--5-----------5----------|---3----------8----------|
Ab|--3-----------5----------|---3----------6----------|
Eb|--------------3----------|---1---------------------|


  Ab5               Bb5
   ~~~               ~~~
eb|-16----15h16p15----15-------15-|
Bb|----------------18-------18----|
Gb|-------------------------------|
Db|-------------------------------|
Ab|-------------------------------|
Eb|-------------------------------|
  |
eb|-------------------------------|
Bb|-------------------------------|
Gb|--------------------3----------|
Db|--6-----------------3----------|
Ab|--6-----------------1----------|
Eb|--4----------------------------|


  C5
          ~~~~~~~~~~~~~~~~~~~             ~~~
eb|-18b20r(18)b20========(20)r-15----15-------|
Bb|-------------------------------16----16----|
Gb|----------------------------------------17-|
Db|-------------------------------------------|
Ab|-------------------------------------------|
Eb|-------------------------------------------|
  |
eb|-------------------------------------------|
Bb|-------------------------------------------|
Gb|--5--------------------(5)---x--x--5-----x-|
Db|--5--------------------(5)---x--x--5-----x-|
Ab|--3--------------------(3)---x--x--3-----x-|
Eb|-------------------------------------------|

                                                               G5
 ~~~~~~                                                         ~~~
eb|---------------------------------------------|-19b20----------19----20b22--|
Bb|---------------------------------------------|-----------------------------|
Gb|-(17)-15-17-17-15----------------------------|-----------------------------|
Db|------------------17-16-15-15-15-13-15-13----|-----------------------------|
Ab|------------------------------------------15-|-----------------------------|
Eb|---------------------------------------------|-----------------------------|
   |
eb|---------------------------------------------|-----------------------------|
Bb|---------------------------------------------|-----------------------------|
Gb|---5---5-----5-----x--x--5-----5-----5-------|--5--------------------------|
Db|---5---5-----5-----x--x--5-----5-----5-------|--5--------------5-----------|
Ab|---3---3-----3-----x--x--3-----3-----3-------|--3--------------5-----------|
Eb|---------------------------------------------|-----------------3-----------|


  F5               Eb5           Ab5               Bb5
                                    ~~~               ~~~
eb|-(22)-------20-19-20-15----15-|-16----15h16p15----15-----------15-|
Bb|------------------------16----|----------------18-----------18----|
Gb|------------------------------|-----------------------------------|
Db|------------------------------|-----------------------------------|
Ab|------------------------------|-----------------------------------|
Eb|------------------------------|-----------------------------------|
   |
eb|------------------------------|-----------------------------------|
Bb|------------------------------|-----------------------------------|
Gb|-------------------8----------|--------------------3--------------|
Db|---3---------------8----------|--6-----------------3--------------|
Ab|---3---------------6----------|--6-----------------1--------------|
Eb|---1--------------------------|--4--------------------------------|


  C5
eb|-15h16h18-15h16h18-15h16h18p16p15----16----15h16p15----15------------|
Bb|----------------------------------18----18----------18----18b20r(18)-|
Gb|---------------------------------------------------------------------|
Db|---------------------------------------------------------------------|
Ab|---------------------------------------------------------------------|
Eb|---------------------------------------------------------------------|
   |
eb|---------------------------------------------------------------------|
Bb|---------------------------------------------------------------------|
Gb|--5------------------------------------------------------------------|
Db|--5------------------------------------------------------------------|
Ab|--3------------------------------------------------------------------|
Eb|---------------------------------------------------------------------|

                                 ~~~~~                   ~~~~
eb|--------------------15-15b16==(16)r(15)----------------------|
Bb|-16-----18-16-18-16-----------------------15b16==(16)r(15)---|
Gb|-----17------------------------------------------------------|
Db|-------------------------------------------------------------|
Ab|-------------------------------------------------------------|
Eb|-------------------------------------------------------------|
   |
eb|-------------------------------------------------------------|
Bb|-------------------------------------------------------------|
Gb|-(5)-------------------(5)-----------x--x--5------------x--x-|
Db|-(5)-------------------(5)-----------x--x--5------------x--x-|
Ab|-(3)-------------------(3)-----------x--x--3------------x--x-|
Eb|-------------------------------------------------------------|


           G5            F5          Eb5
            ~~~
eb|-19b20----19----20b22-|-(22)--20-19-20-15----15--|
Bb|----------------------|-------------------16-----|
Gb|----------------------|--------------------------|
Db|----------------------|--------------------------|
Ab|----------------------|--------------------------|
Eb|----------------------|--------------------------|
   |
eb|----------------------|--------------------------|
Bb|----------------------|--------------------------|
Gb|--5-------------------|--------------8-----------|
Db|--5--------5----------|---3----------8-----------|
Ab|--3--------5----------|---3----------6-----------|
Eb|-----------3----------|---1----------------------|


 
  Ab5            Bb5               C5
eb|-16----15-----------------------|----------------------|
Bb|----------18-16-18b20r==(20)-16-|-15b17r(15)---(15)----|
Gb|--------------------------------|----------------------|
Db|--------------------------------|----------------------|
Ab|--------------------------------|----------------------|
Eb|--------------------------------|----------------------|

 ~~~~~~~~~~~~~~~~
eb|-----------------------------|
Bb|-(15)--(15)b16===(16)r=(15)--|
Gb|-----------------------------|
Db|-----------------------------|
Ab|-----------------------------|
Eb|-----------------------------|



************************************

| x    Dead note
| (n)  Ghost note
| h    Hammer-on
| p    Pull-off
| r    Release
| b    Bend
| pb   Pre-bend
| /    Slide up
| s    Slide
| =    Hold  

************************************
Suggest correction
comments
print report bad tab
7 comments total. Showing first comments.
0 reply
EpiMach 10 Apr 16, 2004 12:00 AM

excellent

0 reply
JoeBoy779 10 Aug 31, 2004 12:00 AM

Nice tab, helped me out, don't care how many guitars you put in there, I couldn't do no better

0 reply
JoeBoy779 10 Dec 20, 2004 12:00 AM

pretend u didn't hear that last comment it was me 5 months ago

guest
You may want to rate the tab now too:
select rating
Wanna post a correction for this tab? Suggest correction