Oops, an error
Loading. Please wait.

One In A Million tab

version 2
version 2

Whole song

Interactive

9,234 views 15 this week
no commentswrite comment
1 2 3 4 5
x 6
add to favorites
×
Save as Personal and add changes to this tab that will be seen only by you. Learn more ›
×
You can save this tab as Personal to edit and correct it or add notes. All changes will be seen only by you. Learn more »
launch autoscroll
font size
0
reset
how to read this tab
guitar tuner
backing track
0:00
0:00
edit
Autoscroll
slow
fast
+/-
esc
set tempo
stop
----------------------------------------------------------------------------
                             One in a Million – Guns’n’Roses
----------------------------------------------------------------------------
                              Tabbed by: Cade Nickels
                          Email:Cade_nickels1321@yahoo.com
                                   Album: Lies
Tuning: ½ step down

Gtr.I (acoustic)


Intro
                      (whistling)
e|-----------------------------------------|
B|-----------------------------------------|
G|-2-2-2222--9-9-9999--7-7-7777--7-7-7777--|
D|-2-2-2222--9-9-9999--7-7-7777--7-7-7777--|
A|-1-1-1111--7-7-7777--5-5-5555--4-4-4444--|
E|-----------------------------------------|

e|-----------------------------------------|
B|-----------------------------------------|
G|-2-2-2222--9-9-9999--7-7-7777--7-7-7777--|
D|-2-2-2222--9-9-9999--7-7-7777--7-7-7777--|
A|-1-1-1111--7-7-7777--5-5-5555--4-4-4444--|
E|-----------------------------------------|

e|-------------------------|--------|
B|-------------------------|--------|
G|-5-5-5-5-5-5-5-5-5-5-5-5-|-5-4----|
D|-5-5-5-5-5-5-5-5-5-5-5-5-|-5-4----|
A|-3-3-3-3-3-3-3-3-3-3-3-3-|-3-2----|
E|-------------------------|-----0--|



Verse

e|------------------------------------------------|
B|------------------------------------------------|
G|------------------------------------------------|
D|--22-4-2-4-2--55-7-5-7-5--------------3232-335--|
A|--00-0-0-0-0--33-3-3-3-3--55-7-5-7-5--3232-335--|
E|--------------------------33-3-3-3-3--1010-113--|


e|------------------------------------------------|
B|------------------------------------------------|
G|------------------------------------------------|
D|--22-4-2-4-2--55-7-5-7-5--------------3232-335--|
A|--00-0-0-0-0--33-3-3-3-3--55-7-5-7-5--3232-335--|
E|--------------------------33-3-3-3-3--1010-113--|


e|------------------------------------------------|
B|------------------------------------------------|
G|------------------------------------------------|
D|--22-4-2-4-2--55-7-5-7-5--------------3232-335--|
A|--00-0-0-0-0--33-3-3-3-3--55-7-5-7-5--3232-335--|
E|--------------------------33-3-3-3-3--1010-113--|

      "Yes I ...
e|------------------------------------------------|
B|------------------------------------------------|
G|------------------------------------------------|
D|--22-4-2-4-2--55-7-5-7-5--------------3232-335--|
A|--00-0-0-0-0--33-3-3-3-3--55-7-5-7-5--3232-335--|
E|--------------------------33-3-3-3-3--1010-113--|

       I needed...
e|------------------------------------------------|
B|------------------------------------------------|
G|------------------------------------------------|
D|--22-4-2-4-2--55-7-5-7-5--------------3232-335--|
A|--00-0-0-0-0--33-3-3-3-3--55-7-5-7-5--3232-335--|
E|--------------------------33-3-3-3-3--1010-113--|

       so I..
e|------------------------------------------------|
B|------------------------------------------------|
G|------------------------------------------------|
D|--22-4-2-4-2--55-7-5-7-5--------------3232-335--|
A|--00-0-0-0-0--33-3-3-3-3--55-7-5-7-5--3232-335--|
E|--------------------------33-3-3-3-3--1010-113--|

       maybe...
e|------------------------------------------------|
B|------------------------------------------------|
G|------------------------------------------------|
D|--22-4-2-4-2--55-7-5-7-5--------------3232-335--|
A|--00-0-0-0-0--33-3-3-3-3--55-7-5-7-5--3232-335--|
E|--------------------------33-3-3-3-3--1010-113--|


       police...
e|------------------------------------------------|
B|------------------------------------------------|
G|------------------------------------------------|
D|--22-4-2-4-2--55-7-5-7-5--------------3232-335--|
A|--00-0-0-0-0--33-3-3-3-3--55-7-5-7-5--3232-335--|
E|--------------------------33-3-3-3-3--1010-113--|


       don't need...
e|------------------------------------------------|
B|------------------------------------------------|
G|------------------------------------------------|
D|--22-4-2-4-2--55-7-5-7-5--------------3232-335--|
A|--00-0-0-0-0--33-3-3-3-3--55-7-5-7-5--3232-335--|
E|--------------------------33-3-3-3-3--1010-113--|

       now don't...
e|------------------------------------------------|
B|------------------------------------------------|
G|------------------------------------------------|
D|--22-4-2-4-2--55-7-5-7-5--------------3232-335--|
A|--00-0-0-0-0--33-3-3-3-3--55-7-5-7-5--3232-335--|
E|--------------------------33-3-3-3-3--1010-113--|

       just need...
e|------------------------------------------------|
B|------------------------------------------------|
G|------------------------------------------------|
D|--22-4-2-4-2--55-7-5-7-5--------------3232-335--|
A|--00-0-0-0-0--33-3-3-3-3--55-7-5-7-5--3232-335--|
E|--------------------------33-3-3-3-3--1010-113--|




Chorus

       Youre one in...
e|-----------3-3-3-3-3-----------5-5-5-5-5-7--|
B|-----------3-3-3-3-3-----------5-5-5-5-5-7--|
G|-5-5-5-5-x-4-4-4-4-4-7-7-7-7-x-6-6-6-6-6-8--|
D|-5-5-5-5-x-5-5-5-5-5-7-7-7-7-x-7-7-7-7-7-9--|
A|-3-3-3-3-x-5-5-5-5-5-5-5-5-5-x-7-7-7-7-7-9--|
E|-----------3-3-3-3-3-----------5-5-5-5-5-7--|

       Youre one in...
e|-----------3-3-3-3-3-----------5-5-5-5-5-7--|
B|-----------3-3-3-3-3-----------5-5-5-5-5-7--|
G|-5-5-5-5-x-4-4-4-4-4-7-7-7-7-x-6-6-6-6-6-8--|
D|-5-5-5-5-x-5-5-5-5-5-7-7-7-7-x-7-7-7-7-7-9--|
A|-3-3-3-3-x-5-5-5-5-5-5-5-5-5-x-7-7-7-7-7-9--|
E|-----------3-3-3-3-3-----------5-5-5-5-5-7--|

       Maybe someday...
e|-----------3-3-3-3-3-----------5-5-5-5-5-7--|
B|-----------3-3-3-3-3-----------5-5-5-5-5-7--|
G|-5-5-5-5-x-4-4-4-4-4-7-7-7-7-x-6-6-6-6-6-8--|
D|-5-5-5-5-x-5-5-5-5-5-7-7-7-7-x-7-7-7-7-7-9--|
A|-3-3-3-3-x-5-5-5-5-5-5-5-5-5-x-7-7-7-7-7-9--|
E|-----------3-3-3-3-3-----------5-5-5-5-5-7--|

       You know...
e|-----------3-3-3-3-3-----------5-5-5-5-5-7--|
B|-----------3-3-3-3-3-----------5-5-5-5-5-7--|
G|-5-5-5-5-x-4-4-4-4-4-7-7-7-7-x-6-6-6-6-6-8--|
D|-5-5-5-5-x-5-5-5-5-5-7-7-7-7-x-7-7-7-7-7-9--|
A|-3-3-3-3-x-5-5-5-5-5-5-5-5-5-x-7-7-7-7-7-9--|
E|-----------3-3-3-3-3-----------5-5-5-5-5-7--|



Bridge

   High____
e|-----------------------------------------|
B|-----------------------------------------|
G|-2-2-2222--9-9-9999--7-7-7777--7-7-7777--|
D|-2-2-2222--9-9-9999--7-7-7777--7-7-7777--|
A|-1-1-1111--7-7-7777--5-5-5555--4-4-4444--|
E|-----------------------------------------|

                                much too...
e|-----------------------------------------|
B|-----------------------------------------|
G|-2-2-2222--9-9-9999--7-7-7777--7-7-7777--|
D|-2-2-2222--9-9-9999--7-7-7777--7-7-7777--|
A|-1-1-1111--7-7-7777--5-5-5555--4-4-4444--|
E|-----------------------------------------|

                                much too...
e|-----------------------------------------|
B|-----------------------------------------|
G|-2-2-2222--9-9-9999--7-7-7777--7-7-7777--|
D|-2-2-2222--9-9-9999--7-7-7777--7-7-7777--|
A|-1-1-1111--7-7-7777--5-5-5555--4-4-4444--|
E|-----------------------------------------|

   high...
e|-----------------------------------------|
B|-----------------------------------------|
G|-2-2-2222--9-9-9999--7-7-7777--7-7-7777--|
D|-2-2-2222--9-9-9999--7-7-7777--7-7-7777--|
A|-1-1-1111--7-7-7777--5-5-5555--4-4-4444--|
E|-----------------------------------------|


Verse

e|------------------------------------------------|
B|------------------------------------------------|
G|------------------------------------------------|
D|--22-4-2-4-2--55-7-5-7-5--------------3232-335--|
A|--00-0-0-0-0--33-3-3-3-3--55-7-5-7-5--3232-335--|
E|--------------------------33-3-3-3-3--1010-113--|

      "Immigrants ...
e|------------------------------------------------|
B|------------------------------------------------|
G|------------------------------------------------|
D|--22-4-2-4-2--55-7-5-7-5--------------3232-335--|
A|--00-0-0-0-0--33-3-3-3-3--55-7-5-7-5--3232-335--|
E|--------------------------33-3-3-3-3--1010-113--|

       they come...
e|------------------------------------------------|
B|------------------------------------------------|
G|------------------------------------------------|
D|--22-4-2-4-2--55-7-5-7-5--------------3232-335--|
A|--00-0-0-0-0--33-3-3-3-3--55-7-5-7-5--3232-335--|
E|--------------------------33-3-3-3-3--1010-113--|

       like start...
e|------------------------------------------------|
B|------------------------------------------------|
G|------------------------------------------------|
D|--22-4-2-4-2--55-7-5-7-5--------------3232-335--|
A|--00-0-0-0-0--33-3-3-3-3--55-7-5-7-5--3232-335--|
E|--------------------------33-3-3-3-3--1010-113--|

       they talk...
e|------------------------------------------------|
B|------------------------------------------------|
G|------------------------------------------------|
D|--22-4-2-4-2--55-7-5-7-5--------------3232-335--|
A|--00-0-0-0-0--33-3-3-3-3--55-7-5-7-5--3232-335--|
E|--------------------------33-3-3-3-3--1010-113--|


       well some...
e|------------------------------------------------|
B|------------------------------------------------|
G|------------------------------------------------|
D|--22-4-2-4-2--55-7-5-7-5--------------3232-335--|
A|--00-0-0-0-0--33-3-3-3-3--55-7-5-7-5--3232-335--|
E|--------------------------33-3-3-3-3--1010-113--|


       some say...
e|------------------------------------------------|
B|------------------------------------------------|
G|------------------------------------------------|
D|--22-4-2-4-2--55-7-5-7-5--------------3232-335--|
A|--00-0-0-0-0--33-3-3-3-3--55-7-5-7-5--3232-335--|
E|--------------------------33-3-3-3-3--1010-113--|

       it's been...
e|------------------------------------------------|
B|------------------------------------------------|
G|------------------------------------------------|
D|--22-4-2-4-2--55-7-5-7-5--------------3232-335--|
A|--00-0-0-0-0--33-3-3-3-3--55-7-5-7-5--3232-335--|
E|--------------------------33-3-3-3-3--1010-113--|

       it's all...
e|------------------------------------------------|
B|------------------------------------------------|
G|------------------------------------------------|
D|--22-4-2-4-2--55-7-5-7-5--------------3232-335--|
A|--00-0-0-0-0--33-3-3-3-3--55-7-5-7-5--3232-335--|
E|--------------------------33-3-3-3-3--1010-113--|



Chorus

       Youre one in...
e|-----------3-3-3-3-3-----------5-5-5-5-5-7--|
B|-----------3-3-3-3-3-----------5-5-5-5-5-7--|
G|-5-5-5-5-x-4-4-4-4-4-7-7-7-7-x-6-6-6-6-6-8--|
D|-5-5-5-5-x-5-5-5-5-5-7-7-7-7-x-7-7-7-7-7-9--|
A|-3-3-3-3-x-5-5-5-5-5-5-5-5-5-x-7-7-7-7-7-9--|
E|-----------3-3-3-3-3-----------5-5-5-5-5-7--|

       Youre one in...
e|-----------3-3-3-3-3-----------5-5-5-5-5-7--|
B|-----------3-3-3-3-3-----------5-5-5-5-5-7--|
G|-5-5-5-5-x-4-4-4-4-4-7-7-7-7-x-6-6-6-6-6-8--|
D|-5-5-5-5-x-5-5-5-5-5-7-7-7-7-x-7-7-7-7-7-9--|
A|-3-3-3-3-x-5-5-5-5-5-5-5-5-5-x-7-7-7-7-7-9--|
E|-----------3-3-3-3-3-----------5-5-5-5-5-7--|

       Maybe someday...
e|-----------3-3-3-3-3-----------5-5-5-5-5-7--|
B|-----------3-3-3-3-3-----------5-5-5-5-5-7--|
G|-5-5-5-5-x-4-4-4-4-4-7-7-7-7-x-6-6-6-6-6-8--|
D|-5-5-5-5-x-5-5-5-5-5-7-7-7-7-x-7-7-7-7-7-9--|
A|-3-3-3-3-x-5-5-5-5-5-5-5-5-5-x-7-7-7-7-7-9--|
E|-----------3-3-3-3-3-----------5-5-5-5-5-7--|

       You know...
e|-----------3-3-3-3-3-----------5-5-5-5-5-7--|
B|-----------3-3-3-3-3-----------5-5-5-5-5-7--|
G|-5-5-5-5-x-4-4-4-4-4-7-7-7-7-x-6-6-6-6-6-8--|
D|-5-5-5-5-x-5-5-5-5-5-7-7-7-7-x-7-7-7-7-7-9--|
A|-3-3-3-3-x-5-5-5-5-5-5-5-5-5-x-7-7-7-7-7-9--|
E|-----------3-3-3-3-3-----------5-5-5-5-5-7--|



Bridge

   High____
e|-----------------------------------------|
B|-----------------------------------------|
G|-2-2-2222--9-9-9999--7-7-7777--7-7-7777--|
D|-2-2-2222--9-9-9999--7-7-7777--7-7-7777--|
A|-1-1-1111--7-7-7777--5-5-5555--4-4-4444--|
E|-----------------------------------------|

                                much too...
e|-----------------------------------------|
B|-----------------------------------------|
G|-2-2-2222--9-9-9999--7-7-7777--7-7-7777--|
D|-2-2-2222--9-9-9999--7-7-7777--7-7-7777--|
A|-1-1-1111--7-7-7777--5-5-5555--4-4-4444--|
E|-----------------------------------------|

                                much too...
e|-----------------------------------------|
B|-----------------------------------------|
G|-2-2-2222--9-9-9999--7-7-7777--7-7-7777--|
D|-2-2-2222--9-9-9999--7-7-7777--7-7-7777--|
A|-1-1-1111--7-7-7777--5-5-5555--4-4-4444--|
E|-----------------------------------------|

   high...
e|-----------------------------------------|
B|-----------------------------------------|
G|-2-2-2222--9-9-9999--7-7-7777--7-7-7777--|
D|-2-2-2222--9-9-9999--7-7-7777--7-7-7777--|
A|-1-1-1111--7-7-7777--5-5-5555--4-4-4444--|
E|-----------------------------------------|




Solo

Gtr.I plays the following throughout solo. 
e|------------------------------------------------|
B|------------------------------------------------|
G|------------------------------------------------|
D|--22-4-2-4-2--55-7-5-7-5--------------3232-335--|
A|--00-0-0-0-0--33-3-3-3-3--55-7-5-7-5--3232-335--|
E|--------------------------33-3-3-3-3--1010-113--|

Gtr.II
|-------------------------------------------------------------|
|-------------------------------------------------------------|
|-9~~~~--7~~~~(7)p6-----7----------(7)~~~-6-7---------5--(5)--|
|--------------------------------------------------7----------|
|-------------------------------------------------------------|
|-------------------------------7\-------------7\-------------|

|-------------------------------------------7h8p7\5--|
|-----------------------------------------8----------|
|--7h8p7p5-8-7-(7)-5-7-7-5----------5-7/9------------|
|--------------------------7-7~~-7-------------------|
|----------------------------------------------------|
|----------------------------------------------------|
 
              (full)(full)
|---------8-10-10b---10b--(10)-8-10-8-10h11p10p(8)--|
|-5--8/10-------------------------------------------|
|---------------------------------------------------|
|---------------------------------------------------|
|---------------------------------------------------|
|---------------------------------------------------|

            (1/4)
|10-8-12-11-11b-10-10-8------------------|
|------------------------10-10-(10)--10--|
|----------------------------------------|
|----------------------------------------|
|----------------------------------------|
|----------------------------------------|

|-7h8p7-------------------------------------------------------------------|
|-------10---8/10--6h8p6\5---6---5h6p5---5-----5--------------------------|
|----------9---------------7---7-------7---7/8---8\7--8p7-5-8p7-5-7-------|
|-------------------------------------------------------------------7-7-7-|
|-------------------------------------------------------------------------|
|-------------------------------------------------------------------------|

|-----------------------------------------------------------------------|
|-----------------------------------------------------------------------|
|-5h7p5\4-5-4h5p4-4-----------------------------------------------------|
|-------------------5-3---3-3--0h2-----0h2p0----------0--------2--------|
|-----------------------------------3--------(0)-2-3-----3p2-----3p2----|
|------------------------------------------------------------3-------3--|

|--------------------------------------------5---7--------8-(8)---8-----|
|------------------------------------------5---5---5------------5---5---|
|----------------------------------------5-----------5------------------|
|-----------------------------------5-7---------------------------------|
|----3--5-3-5hb-5~~(5)~~-3-5-3-5/7--------------------------------------|
|-/5--------------------------------------------------------------------|

|-8/10-10-8-10/12-----------------------------|
|-----------------10-10-(10)~~~~(10)~~~~~~~~--|
|---------------------------------------------|
|---------------------------------------------|
|---------------------------------------------|
|---------------------------------------------|



Verse

Gtr.I "Radicals and...
e|------------------------------------------------|
B|------------------------------------------------|
G|------------------------------------------------|
D|--22-4-2-4-2--55-7-5-7-5--------------3232-335--|
A|--00-0-0-0-0--33-3-3-3-3--55-7-5-7-5--3232-335--|
E|--------------------------33-3-3-3-3--1010-113--|
Gtr.II
|--------------------------13-13-12--12--10-------|
|---------------------------------------------10~~|
|-------------------------------------------------|
|-------------------------------------------------|
|-------------------------------------------------|
|-------------------------------------------------|

Gtr.I      "I'm a small ...
e|------------------------------------------------|
B|------------------------------------------------|
G|------------------------------------------------|
D|--22-4-2-4-2--55-7-5-7-5--------------3232-335--|
A|--00-0-0-0-0--33-3-3-3-3--55-7-5-7-5--3232-335--|
E|--------------------------33-3-3-3-3--1010-113--|

       don't need...
e|------------------------------------------------|
B|------------------------------------------------|
G|------------------------------------------------|
D|--22-4-2-4-2--55-7-5-7-5--------------3232-335--|
A|--00-0-0-0-0--33-3-3-3-3--55-7-5-7-5--3232-335--|
E|--------------------------33-3-3-3-3--1010-113--|

       just makin'...
e|------------------------------------------------|
B|------------------------------------------------|
G|------------------------------------------------|
D|--22-4-2-4-2--55-7-5-7-5--------------3232-335--|
A|--00-0-0-0-0--33-3-3-3-3--55-7-5-7-5--3232-335--|
E|--------------------------33-3-3-3-3--1010-113--|



Chorus

       Youre one in...
e|-----------3-3-3-3-3-----------5-5-5-5-5-7--|
B|-----------3-3-3-3-3-----------5-5-5-5-5-7--|
G|-5-5-5-5-x-4-4-4-4-4-7-7-7-7-x-6-6-6-6-6-8--|
D|-5-5-5-5-x-5-5-5-5-5-7-7-7-7-x-7-7-7-7-7-9--|
A|-3-3-3-3-x-5-5-5-5-5-5-5-5-5-x-7-7-7-7-7-9--|
E|-----------3-3-3-3-3-----------5-5-5-5-5-7--|

       Youre one in...
e|-----------3-3-3-3-3-----------5-5-5-5-5-7--|
B|-----------3-3-3-3-3-----------5-5-5-5-5-7--|
G|-5-5-5-5-x-4-4-4-4-4-7-7-7-7-x-6-6-6-6-6-8--|
D|-5-5-5-5-x-5-5-5-5-5-7-7-7-7-x-7-7-7-7-7-9--|
A|-3-3-3-3-x-5-5-5-5-5-5-5-5-5-x-7-7-7-7-7-9--|
E|-----------3-3-3-3-3-----------5-5-5-5-5-7--|

       Maybe someday...
e|-----------3-3-3-3-3-----------5-5-5-5-5-7--|
B|-----------3-3-3-3-3-----------5-5-5-5-5-7--|
G|-5-5-5-5-x-4-4-4-4-4-7-7-7-7-x-6-6-6-6-6-8--|
D|-5-5-5-5-x-5-5-5-5-5-7-7-7-7-x-7-7-7-7-7-9--|
A|-3-3-3-3-x-5-5-5-5-5-5-5-5-5-x-7-7-7-7-7-9--|
E|-----------3-3-3-3-3-----------5-5-5-5-5-7--|

       You know...
e|-----------3-3-3-3-3-----------5-5-5-5-5-7--|
B|-----------3-3-3-3-3-----------5-5-5-5-5-7--|
G|-5-5-5-5-x-4-4-4-4-4-7-7-7-7-x-6-6-6-6-6-8--|
D|-5-5-5-5-x-5-5-5-5-5-7-7-7-7-x-7-7-7-7-7-9--|
A|-3-3-3-3-x-5-5-5-5-5-5-5-5-5-x-7-7-7-7-7-9--|
E|-----------3-3-3-3-3-----------5-5-5-5-5-7--|



Bridge

   High____
e|-----------------------------------------|
B|-----------------------------------------|
G|-2-2-2222--9-9-9999--7-7-7777--7-7-7777--|
D|-2-2-2222--9-9-9999--7-7-7777--7-7-7777--|
A|-1-1-1111--7-7-7777--5-5-5555--4-4-4444--|
E|-----------------------------------------|

                                much too...
e|-----------------------------------------|
B|-----------------------------------------|
G|-2-2-2222--9-9-9999--7-7-7777--7-7-7777--|
D|-2-2-2222--9-9-9999--7-7-7777--7-7-7777--|
A|-1-1-1111--7-7-7777--5-5-5555--4-4-4444--|
E|-----------------------------------------|

                                much too...
e|-----------------------------------------|
B|-----------------------------------------|
G|-2-2-2222--9-9-9999--7-7-7777--7-7-7777--|
D|-2-2-2222--9-9-9999--7-7-7777--7-7-7777--|
A|-1-1-1111--7-7-7777--5-5-5555--4-4-4444--|
E|-----------------------------------------|

   high...
e|-----------------------------------------|
B|-----------------------------------------|
G|-2-2-2222--9-9-9999--7-7-7777--7-7-7777--|
D|-2-2-2222--9-9-9999--7-7-7777--7-7-7777--|
A|-1-1-1111--7-7-7777--5-5-5555--4-4-4444--|
E|-----------------------------------------|

   High____
e|-----------------------------------------|
B|-----------------------------------------|
G|-2-2-2222--9-9-9999--7-7-7777--7-7-7777--|
D|-2-2-2222--9-9-9999--7-7-7777--7-7-7777--|
A|-1-1-1111--7-7-7777--5-5-5555--4-4-4444--|
E|-----------------------------------------|

   much too...
e|-----------------------------------------|
B|-----------------------------------------|
G|-2-2-2222--9-9-9999--7-7-7777--7-7-7777--|
D|-2-2-2222--9-9-9999--7-7-7777--7-7-7777--|
A|-1-1-1111--7-7-7777--5-5-5555--4-4-4444--|
E|-----------------------------------------|

   high...
e|-----------------------------------------|
B|-----------------------------------------|
G|-2-2-2222--9-9-9999--7-7-7777--7-7-7777--|
D|-2-2-2222--9-9-9999--7-7-7777--7-7-7777--|
A|-1-1-1111--7-7-7777--5-5-5555--4-4-4444--|
E|-----------------------------------------|

  
e|-----------------------------------------|
B|-----------------------------------------|
G|-2-2-2222--9-9-9999--7-7-7777--7-7-7777--|
D|-2-2-2222--9-9-9999--7-7-7777--7-7-7777--|
A|-1-1-1111--7-7-7777--5-5-5555--4-4-4444--|
E|-----------------------------------------|
   
(Fade out)

End.












===============================================================

Lyrics:

Guess I needed
Sometime to get away
I needed some peace of mind
Some peace of mind that'll stay
So I thumbed it
Down to sixth and L.A.
Maybe your greyhound
Could be my way
Police and niggers
That's right
Get out of my way
Don't need to buy none of your
Goldchains today
I don't need no bracelets
Clamped in front of my back
Just need my ticket till then
Won't you cut me some slack


Chorus:


You're one in a million
Yeah, that's what you are
You're one in a million, babe
You are a shooting star
Maybe someday we'll see you
Before you make us cry
You know we tried to reach you
But you were much to high
Much to high
Much to high
Much to high


Immigrants and faggots
They make no sense to me
They come to our country
And think they'll do as they please
Like start some mini Iran
Or spread some fucking disease
They talk so many goddamn ways
It's all greek to me
Well some say I'm lazy
And others say that's just me
Some say I'm crazy
I guess I'll always be
But it's been such a long time
Since I knew right from wrong
It's all the means to an end, I,
I keep on movin' along


Chorus


Radicals and racists
Don't point your finger at me
I'm a small town white boy
Just tryin' to make ends meet
Don't need your religion
Don't watch that much TV
Just makin' my livin', baby,
Well that's enough for me


Chorus

=================================================================
Suggest correction
Creating personal tab
Creating personal tab
You can edit any tab online and save it as your Personal.

You can edit, replace or remove any tab part or add personal notes – all changes will be seen only by you.

Personal tabs can be accessed anytime from any device, even offline.
Learn more »
comments
print report bad tab
guest
You may want to rate the tab now too:
select rating
Wanna post a correction for this tab? Suggest correction