Oops, an error
Loading. Please wait.
We have an official Paradise City tab made by UG professional guitarists. Check out the tab »
×
2,368 views 51 this week
no commentswrite comment
1 2 3 4 5
1 last vote to show rating
add to favorites
launch autoscroll
font size
0
reset
transpose
0
reset
display chords
guitar tuner
×
Best way to learn
"Paradise City"
Autoscroll
slow
fast
+/-
esc
set tempo
stop
Author
Difficulty
Tuning
  follow
intermediate
D# G# C# F# A# D#
[Intro]

e|-3-3-----3-----3-----3-3-----3-----3-----3-3-----3-3--------------------|
B|-----0-----0-----0---1---0-----0-----0---1---0---1---0------------------|
G|-------0-----0-----0-0-----0-----0-----0-2-----0-0-----0----------------|
D|---------------------2-------------------3-------2----------------------|
A|-2-------------------3---------------------------3----------------------|
E|-3----------------------------------------------------------------------|
Repete 3 times
e|-------------------------------------------------------------------------------------------------|
B|-------------------15-------------------------------15-------------13b13b13-15-------------------|
G|-------12-12----------14-14b14b12-------12-12----------14-14b14b12-------------14-14b14b12-------|
D|-12-14-------12-14----------------12-14-------12-14----------------------------------------------|
A|-------------------------------------------------------------------------------------------------|
E|-------------------------------------------------------------------------------------------------|
Repete 2 times




************************************

| x   Dead note
| g   Grace note
| (n) Ghost note
| h   Hammer-on
| p   Pull-off
| r   Release
| >   Accented note
| t   Tapping
| b   Bend
| br  Bend release
| pb  Pre-bend
| pbr Pre-bend release
| /   Slide up
| \   Slide down
| ~   Vibrato
| s   Slap
| P   Pop
| PM  Palm mute
| TR  Trill
| N   Tremolo

************************************
Suggest correction
Give kudos to tab author, rate the tab!
1 2 3 4 5
comments
print report bad tab
guest
You may want to rate the tab now too:
select rating
Wanna post a correction for this tab? Suggest correction