Oops, an error
Loading. Please wait.

Paradise City Tab

version 1
version 1

Intro

Whole song

Video

433 views 90 this week
no commentswrite comment
1 2 3 4 5
2 more votes to show rating
add to favorites
launch autoscroll
font size
0
reset
how to read this tab
guitar tuner
Autoscroll
slow
fast
+/-
esc
set tempo
stop
Help us to improve Ultimate-Guitar.com Take our survey!
×
Author
Tuning
D# G# C# F# A# D#
[Intro]

e|-3-3-----3-----3-----3-3-----3-----3-----3-3-----3-3--------------------|
B|-----0-----0-----0---1---0-----0-----0---1---0---1---0------------------|
G|-------0-----0-----0-0-----0-----0-----0-2-----0-0-----0----------------|
D|---------------------2-------------------3-------2----------------------|
A|-2-------------------3---------------------------3----------------------| x3
E|-3----------------------------------------------------------------------|

e|-------------------------------------------------------------------------------------------------|
B|-------------------15-------------------------------15-------------13b13b13-15-------------------|
G|-------12-12----------14-14b14b12-------12-12----------14-14b14b12-------------14-14b14b12-------|
D|-12-14-------12-14----------------12-14-------12-14----------------------------------------------|
A|-------------------------------------------------------------------------------------------------| x2
E|-------------------------------------------------------------------------------------------------|


************************************
| b   Bend
************************************
Suggest correction
Give kudos to tab author, rate the tab!
1 2 3 4 5
comments
print report bad tab
guest
You may want to rate the tab now too:
select rating
Wanna post a correction for this tab? Suggest correction