Oops, an error
Loading. Please wait.
We have an official Paradise City tab made by UG professional guitarists. Check out the tab »
×
205,422 views 102 this week
10 commentsread comments
1 2 3 4 5
x 30
add to favorites
×
Save as Personal and add changes to this tab that will be seen only by you. Learn more ›
×
You can save this tab as Personal to edit and correct it or add notes. All changes will be seen only by you. Learn more »
launch autoscroll
font size
0
reset
how to read this tab
guitar tuner
edit
Autoscroll
slow
fast
+/-
esc
set tempo
stop
Tune Down 1/2 Step

D#|----------------------------------------------------------------|
A#|----------------------------------------------------------------|
F#|----------------------------------------------------------------|
C#|---------------------------------------3qb--5~--3--4--5~--3--4--|
G#|----5~--3--4--5~--3--4--5--3--5--3--5---------------------------|
D#|----------------------------------------------------------------|

D#|--------------------------------------------------------------------------|
A#|--------------------------------------------------------------------------|
F#|-------------------------------------------5--(5)--3--4--5--3--5--3--(3)--|
C#|----5--3--5--3--5--3qb--3~--1--2--3--0--3---------------------------------|
G#|--------------------------------------------------------------------------|
D#|--------------------------------------------------------------------------|

D#|------------------------------------------------------------------------|
A#|------------------------------------------------------------------------|
F#|--------------3-----5--3--------3hb------------3-----------------3------|
C#|----5--3--5~-----5--------5--3-------5--3--5~-----5--5~--(5)--3-----5~--|
G#|------------------------------------------------------------------------|
D#|------------------------------------------------------------------------|

D#|-----------------------------------------------------------|
A#|----5hbr--3--5hbr--3--5hbr--3--5~--6--x--5--(5)--3--(3qb)--|
F#|----5hbr--3--5hbr--3--5hbr--3--5~--5--x--5--(5)--3--(3qb)--|
C#|-----------------------------------------------------------|
G#|-----------------------------------------------------------|
D#|-----------------------------------------------------------|

D#|---------------------------------------------------------------------|
A#|---------------3-----------------3--(3)----------15b--15b--15b--15b--|
F#|---------------3-----3--2--------3--(3)------12----------------------|
C#|----5p--3--5~-----5--------5--3----------14--------------------------|
G#|---------------------------------------------------------------------|
D#|---------------------------------------------------------------------|

D#|---------------------------------------------------------------------|
A#|----15b--15--14--13------13--15--13h--15p--13/--11h--13p--11--(11h)--|
F#|---------------------15----------------------------------------------|
C#|---------------------------------------------------------------------|
G#|---------------------------------------------------------------------|
D#|---------------------------------------------------------------------|

D#|---------------------------------------------------------10--15-------|
A#|----13p--11/--10--11p--10------10h--11--10------10--13b----------18b--|
F#|---------------------------12---------------12------------------------|
C#|----------------------------------------------------------------------|
G#|----------------------------------------------------------------------|
D#|----------------------------------------------------------------------|

D#|----15----------------15------15-------15------15-------15-----------|
A#|--------18p--15--18b------18------18b------18------18b------18p--15--|
F#|---------------------------------------------------------------------|
C#|---------------------------------------------------------------------|
G#|---------------------------------------------------------------------|
D#|---------------------------------------------------------------------|

D#|---------15------15-------15--15-----------18b--(18)--|
A#|-------------18------18b----------18p--15-------------|
F#|----17b-----------------------------------------------|
C#|------------------------------------------------------|
G#|------------------------------------------------------|
D#|------------------------------------------------------|

D#|----3---------3---------3---------3---------|
A#|-------6p--3-----6p--3-----6p--3-----6p--3--|
F#|--------------------------------------------|
C#|--------------------------------------------|   
G#|--------------------------------------------|
D#|--------------------------------------------|(x4)

D#|-----------6--5h--6p--5----------------------------------------------------|
A#|----6/--8----------------8p--6--8--5h--6h--8--5h--6h--8--6p--5-------------|
F#|----------------------------------------------------------------7p--5--5b--|
C#|---------------------------------------------------------------------------|
G#|---------------------------------------------------------------------------|
D#|---------------------------------------------------------------------------|

D#|--------------------------------------------------|
A#|----3------3--------------------------------------|
F#|-------5b-----5b--5--3h--5p--3---------3----------|
C#|--------------------------------3h--5-----5~p--3--|
G#|--------------------------------------------------|
D#|--------------------------------------------------|

D#|-------------------------------------------------------------------------|
A#|-------------------------------------------------------------------------|
F#|-------------------------------------------------------------------------|
C#|----5p--3------------3---------------------------------------------3-----|
G#|-----------5--3h--5-----3--1----------------------1---------3/--5-----5--|
D#|------------------------------3--1hb--1--3--(3~)------3--x---------------|

D#|------------------------------------------------------------------3-----|
A#|----------------3-----------------------3----------------------3--------|
F#|----------------3-----------------3-----3------------3-----5b--------5--|
C#|----5--3-----------5p--3h--5~--5-----5-----5--5~--5-----5---------------|
G#|----------5--3----------------------------------------------------------|
D#|------------------------------------------------------------------------|

D#|----3-----------3-------------3----------3----------------3------|
A#|----3--3-----3-----5hbrrb--3-----5hb--3-----5shb--5hbrrb-----6b--|
F#|----------5--------5hbrrb--------5hb--------5shb--5hbrrb---------|
C#|-----------------------------------------------------------------|
G#|-----------------------------------------------------------------|
D#|-----------------------------------------------------------------|

D#|----3---------3--6p--3-----8br(8p)--6-----8p--6---------10b--10--|
A#|-------6b--6------------6--------------8---------8p--6-----------|
F#|-----------------------------------------------------------------|
C#|-----------------------------------------------------------------|
G#|-----------------------------------------------------------------|
D#|-----------------------------------------------------------------|

D#|----9--8-------8--9--10---------------------------------------|
A#|----------10b------------10hbr--(10p)--8-----10-----8--10-----|
F#|------------------------------------------9------9---------9--|
C#|--------------------------------------------------------------|
G#|--------------------------------------------------------------|
D#|--------------------------------------------------------------|

D#|---------------------10-------------------------------------------------|
A#|----8--10-----8--10------10-----8~--10-----8~--10-----8~--10-----8--10--|
F#|-----------9-----------------9----------9----------9----------9---------|
C#|------------------------------------------------------------------------|
G#|------------------------------------------------------------------------|
D#|------------------------------------------------------------------------|

D#|-----------------------------------------------------------------------|
A#|----8h--10--11--10h--11p--10p--8------10------8------10h--11p--10------|
F#|----------------------------------10------10-----12----------------12--|
C#|-----------------------------------------------------------------------|
G#|-----------------------------------------------------------------------|
D#|-----------------------------------------------------------------------|

D#|--------------------------------10h--12------10h--12h--13--|
A#|----10h--11h--13--10h--11h--13-----------13----------------|
F#|-----------------------------------------------------------|
C#|-----------------------------------------------------------|
G#|-----------------------------------------------------------|
D#|-----------------------------------------------------------|

D#|----15p--12h--13/--17--13h--15--15h--17------18--15h--17--15------15-------|
A#|-----------------------------------------18-------------------18------18b--|
F#|---------------------------------------------------------------------------|
C#|---------------------------------------------------------------------------|
G#|---------------------------------------------------------------------------|
D#|---------------------------------------------------------------------------|

D#|----15--------------------------------------------------------------------|
A#|--------18p--15--18p--15------15--18p--15------15------15-----------------|
F#|--------------------------18---------------18------18------17--(17/)--15--|
C#|--------------------------------------------------------------------------|
G#|--------------------------------------------------------------------------|
D#|--------------------------------------------------------------------------|

D#|--------x--18---------------------------------------12--13h--15p--13p--12--|
A#|-----------17--17~/--14----------------12h-13h--15-------------------------|
F#|-------------------------12h--14h--15--------------------------------------|
C#|----17---------------------------------------------------------------------|
G#|---------------------------------------------------------------------------|
D#|---------------------------------------------------------------------------|

D#|--------13/--12----------12----------------------------------------------|
A#|----15-----------15--13------15p--13--12--15--13p--12------14p--13p--12--|
F#|-------------------------------------------------------15----------------|
C#|-------------------------------------------------------------------------|
G#|-------------------------------------------------------------------------|
D#|-------------------------------------------------------------------------|

D#|-----------------------------------------------------------------------|
A#|--------15p--14p--13p--12-----------12p--10-----------10---------------|
F#|----14---------------------14p--12-----------12p--10------12p--10/--9--|
C#|-----------------------------------------------------------------------|
G#|-----------------------------------------------------------------------|
D#|-----------------------------------------------------------------------|

D#|-------------------------------------------------------------------------|
A#|-------------------------------------------------------------------------|
F#|----12p--10p--9------10p--9----------9-----------------------------------|
C#|-----------------12----------12--10-----12p--10--9--12--10hbr------10br--|
G#|---------------------------------------------------------------13--------|
D#|-------------------------------------------------------------------------|

D#|-----------------------------------------------------------------------|
A#|-----------------------------------------------------------------------|
F#|-----------------------------------------------------------------------|
C#|--------10--10----------10----------10--0------------------------------|
G#|----13-------------------------------------14h--16h--17--15h--16h--17--|
D#|----------------10--10------10--10-------------------------------------|

D#|--------------------------------------------------------------------------|
A#|--------------------------------------------------------------------------|
F#|--------------------------------15h--16h--17----------------15h--16h--17--|
C#|----15h--16h--17--15h--16h--17----------------15h--16h--17----------------|
G#|--------------------------------------------------------------------------|
D#|--------------------------------------------------------------------------|

D#|------------------------------------------------------------15-----------|
A#|----15h--16h--17----------------15h--16h--17--16h--17h--18------18b------|
F#|------------------15h--16h--17-------------------------------------------|
C#|-------------------------------------------------------------------------|
G#|---------------------------------------------------------------------15--|
D#|-------------------------------------------------------------------------|

D#|----------------------------------------|
A#|----------------------------------------|
F#|----------------------------------------|
C#|----------------------------------------|   
G#|----------------------------------------|
D#|----3--1--2--3--1--2--3--1--2--3--1--2--|(x2)

D#|----------------------------------------------------------------------------|
A#|----------------------------------------------------------------------------|
F#|----------------------------------------------------------------------------|
C#|----3--4--5--3--4--5--3--4--5--3--4--5--3--4--5--3--4--5--3--4--5--3--4--5--|
G#|----------------------------------------------------------------------------|
D#|----------------------------------------------------------------------------|

D#|----------------------------------------------------------------------------|
A#|----------------------------------------------------------------------------|
F#|-------------3------3sb--(3)--5hbr--(5p)--3h--5~--(5sb)--5--3--5-----3-3qb--|
C#|----3--4--5-----5~------------------------------------------------5---------|
G#|----------------------------------------------------------------------------|
D#|----------------------------------------------------------------------------|

D#|-----------------12--------------------------------------------------------|
A#|-------------15------15--12------------------------------------------------|
F#|--------14b------------------14--14--12------14------12~--12--12--14p--12--|
C#|----5~-----------------------------------14------14------------------------|
G#|---------------------------------------------------------------------------|
D#|---------------------------------------------------------------------------|

D#|------------------------------------------------------------------------|
A#|----------------------------------12--15--------------------------------|
F#|--------12--12~--12--14--12--14b----------14br--12------14------12--14--|
C#|----14----------------------------------------------14------14----------|
G#|------------------------------------------------------------------------|
D#|------------------------------------------------------------------------|

D#|------------------------------------------------------------------|
A#|------------13--14--15--------13--15--------13--15--------13--15--|
F#|----(14hb)--------------14hb----------14hb----------14hb----------|
C#|------------------------------------------------------------------|
G#|------------------------------------------------------------------|
D#|------------------------------------------------------------------|

D#|-----------------------------------------------|
A#|----------13--15--------13--15p--13--------13--|
F#|----14hb----------14hb---------------15hb------|
C#|-----------------------------------------------|
G#|-----------------------------------------------|
D#|-----------------------------------------------|
                                                           
e---------------------------------------------------------|
b----15p--13--------13--15p--13--------13--15p--13--------| 
g-------------15hb---------------15hb---------------15hb--|  
d---------------------------------------------------------|  
a---------------------------------------------------------|  
e---------------------------------------------------------|  
                                                            
D#|--------------------------|                                    
A#|----13--15--13--------13--|                                
F#|----------------15hb------|                                 
C#|--------------------------|                                 
G#|--------------------------|                                 
D#|--------------------------|                                 
                                                           

D#|------------------------------------------------------------------------|
A#|----15b--13h--15p--13/--12--12h--13p--12-----------12-------------------|
F#|------------------------------------------14p--12------14br--(14p)--12--|
C#|------------------------------------------------------------------------|
G#|------------------------------------------------------------------------|
D#|------------------------------------------------------------------------|

D#|--------------------------------------------------------------------------|
A#|--------------------------------------------------------------------------|
F#|--------14p--12-----------------------5hb--5hbr--(5p)--3--5p--3-----5hbr--|
C#|----14-----------12h--14--12br--(12)-----------------------------5--------|
G#|--------------------------------------------------------------------------|
D#|--------------------------------------------------------------------------|

D#|-----------------------------------------------------------|
A#|-----------------------------------------------------------|
F#|----(5p)--3-----5-----3qb-----3qb--------------------------|
C#|-------------5-----3-------5-------5--3--------------------|
G#|-----------------------------------------5--4--3--3hbr--1--|
D#|-----------------------------------------------------------|

D#|------------------------------------|
A#|------------------------------------|
F#|-----------------3--(3shb)--(3)-----|
C#|-------------5~------------------5--|
G#|----3--1--2----------------------5--|
D#|---------------------------------3--|

************************************

| x    Dead note
| (n)  Ghost note
| h    Hammer-on
| p    Pull-off
| b    full bend 
| br   Bend release
| /    Slide up
| ~    tremelo
| hb   half bend
| qb   quarter bend 
| hbr  half bend and release 
| qbr  quarter bend and release 
| sb   slow bend 
| sbr  slow bend and release 
| rb   rebend 

************************************

            
            
Suggest correction
Creating personal tab
Creating personal tab
You can edit any tab online and save it as your Personal.

You can edit, replace or remove any tab part or add personal notes – all changes will be seen only by you.

Personal tabs can be accessed anytime from any device, even offline.
Learn more »
comments
print report bad tab
10 comments total. Showing first comments.
-1 reply
j_schneider 15 May 05, 2006 05:54 PM

Alright tab but you skipped the intro
what you have tabed should be chords

-----------------------------------
-----------------------------------
------------------------3----------
--5-3-4-5-3-4-5-3-5-3-5-3----------
--5-3-4-5-3-4-5-3-5-3-5------------
-----------------------------------

-----------------------------------
-----------------------------------
----------------------5-3----------
--5-3-4-5-3-4-5-3-5-3-5-3----------
--5-3-4-5-3-4-5-3-5-3--------------
-----------------------------------

-1 reply
ThePartyBoy 10 Jun 13, 2006 05:45 PM

lol.... the intro to the outro solo is completely wrong. Each should be moved up one string...

0 reply
C_Turton 31 Nov 23, 2006 01:10 AM

Yeah, that's what happens when people copy a song from a book when they don't know how to play it.. or maybe even can't play guitar. Well done MorbidVentress. Your profile says you're a keyboard player. Who are you trying to kid? You think people will like you more if they think you can play guitar well?

guest
You may want to rate the tab now too:
select rating
Wanna post a correction for this tab? Suggest correction