Oops, an error
Loading. Please wait.
We have an official Paradise City tab made by UG professional guitarists. Check out the tab »
×

Paradise City Bass

version 2
version 2

Whole song

123,729 views 87 this week
7 commentsread comments
1 2 3 4 5
x 39
add to favorites
launch autoscroll
font size
0
reset
guitar tuner
×
Best way to learn
"Paradise City"
Autoscroll
slow
fast
+/-
esc
set tempo
stop
Paradise City - Guns N' Roses
-----------------------------------------------------------------------------

Tabbed By :George Sousouris
e-mail:Gsou897@aol.com

Tuning: Standard


[Intro]

Reapeat this x2
G|--------------------------------------------------------------------------|
D|-----2-----------2-----4444-----------------------------------------------|
A|---2---2------2----2------------------------------------------------------|
E|-2-------2--2----0--2-----------------------------------------------------|


[Verse]

G|--------------------------------------------------------------------------|
D|--------------------------------------------------------------------------|
A|--------------------------------------------------------------------------|
E|--2-0-1-2-0-1-2-0-1-2-5---2-0-1-2-0-1-2-0-1-2-5--2-0-1-2-0-1-2-0-1-2-5----|

G|--------------------------------------------------------------------------|
D|--------------------------------------------------------------------------|
A|-----------------------2-0------------------------------------------------|
E|-2-0-1-2-0-1-2-0-1-222----------------------------------------------------|

Bass/drum fill in the middle of the verses goes like this, it's very quick.
G|--------------------------------------------------------------------|
D|--------------------------------------------------------------------|
A|--2-3-2-0-2-0-------------------------------------------------------|
E|---------------0-2--------------------------------------------------|


Chourus
(reapeat as needed)
G|--------------------------------------------------------------------------|
D|----------2-2-------44-44-2--------2-2------------------------------------|
A|------2-2-----2-------------4----2-----2----------------------------------|
E|--2-2-----0-----22------------22---0-----2--------------------------------|

Bridge/Guitar solo-do the regular verse, and then follow what I wrote here for when it goes higher.
G|--------------------------------------------------------------------------|
D|--------------------------------------------------------------------------|
A|-----------------------------2--------------------------------------------|
E|--4-2-3-4-2-3-4-2-3-4--2-3-4---2-0-1-2-0-1-2-0-1-2--5---------------------|

G|--------------------------------------------------------------------------|
D|--------------------------------------------------------------------------|
A|--------------------------------------------------------------------------|
E|--44444--44444-22222-22222-44444-44444-22222-22222-44444-44444-22222-2222-|


G|--4-4-4-4-4-4-4-4-4-4-2-2-2-2-2-2-2-2-2-2-2-----------------------------------------------|
D|--------------------------------------------2--/-into verse again-------------------------|
A|------------------------------------------------------------------------------------------|
E|------------------------------------------------------------------------------------------|

Play the chourus fast until the end. Ocassoinally hevaries it like this-
G|------------------------------------------------------------------------------------------------------|
D|-------------------------------2-2-2-2-------------------8-8-9-9-1-0-1-0------------------------------|
A|----------------2-2-2-2-2-2-2-2-------2-2-2-2----------9----------------------------------------------|
E|-2-2-2-2-2-2-2-2-----------------------------2-2-2-2--------------------------------------------------|


Order of song
Intro.
Verse
Chourus
verse
chourus
Part of verse, Bridge guitar solo
verse
Chourus
Fast Chourus until end

************************************

| /  Slide up

************************************
Suggest correction
comments
print report bad tab
7 comments total. Showing first comments.
-1 reply
Bassman1993 10 Aug 23, 2006 05:14 AM

its like this

g------
d-----
a-----5---------3---5
e-----------3-----3

then to

g
d
a------------------------3-1
e----3-0-1-3-0-1-3-1-3-1
but it dosent really matter thats just my version

+4 reply
Loadupongunzz 753 Dec 17, 2006 12:44 PM

tuning should be down a half step

+3 reply
punk&metal 10 Aug 14, 2008 09:41 PM

corus and outro are wrong, and it should be 1/2 step down

guest
You may want to rate the tab now too:
select rating
Wanna post a correction for this tab? Suggest correction