Oops, an error
Loading. Please wait.
We have an official Paradise City tab made by UG professional guitarists. Check out the tab »
×
47,911 views 30 this week
9 commentsread comments
1 2 3 4 5
x 12
add to favorites
×
Save as Personal and add changes to this tab that will be seen only by you. Learn more ›
×
You can save this tab as Personal to edit and correct it or add notes. All changes will be seen only by you. Learn more »
save as personal
new!
launch autoscroll
font size
0
reset
how to read this tab
guitar tuner
Autoscroll
slow
fast
+/-
esc
set tempo
stop
Hey, here is possibly one of GnR best songs and no one on this site tabbed out
the whole song. So here is an exact copy of the tab I use. If you can play it
all, and find a mistake then good for you :-) the little intro is well done in
the other tabs, but Slash doesn't play that, so I didn't put it down, it's really
just picking with G, C, F. then a little note from E.

have fun people.
if you like it then share it
peace
sean

                                 Paradise City
                        G5
e|--------------------|--3------------------|
B|--------------------|--3------------------|
G|--------------------|--0--------------x-x-|
D|----------------x-x-|--0--------------x-x-|
A|----------------x-x-|--x--------------x-x-|
E|----------------x-x-|--3------------------|

   C5                F5             C5         G5
e|---------------------|-------------------------|--3------------------|
B|--5------------------|--10----------5----------|--3------------------|
G|--5--------------x-x-|--10------x-x-5----------|--0------------------|
D|--5--------------x-x-|--10------x-x-5------x-x-|--0--------------x-x-|
A|--3--------------x-x-|--8-------x-x-3------x-x-|--x--------------x-x-|
E|---------------------|---------------------x-x-|--3--------------x-x-|

                   C5                    F5             C5         G5
e|--3------------------|---------------------|-------------------------|
B|--3------------------|--5------------------|--10----------5----------|
G|--0--------------x-x-|--5--------------x-x-|--10------x-x-5----------|
D|--0--------------x-x-|--5--------------x-x-|--10------x-x-5------x-x-|
A|--x--------------x-x-|--3--------------x-x-|--8-------x-x-3------x-x-|
E|--3------------------|---------------------|---------------------x-x-|

e|--3----------------|----------------------------------------|
B|--3----------------|----------------------15----------------|
G|--0----------------|--------12-12~-----------14b--14r-12----|
D|--0----------------|--12h14---------14-12----------------14-|
A|--x----------------|----------------------------------------|
E|--3----------------|----------------------------------------|

e|----------------------------------------|------------------------------|
B|----------------------15----------------|--13b---13b---13--------------|
G|--------12-12~-----------14b--14r-12----|--------------------14r-12----|
D|--12h14---------14-12----------------14-|---------------------------14-|
A|----------------------------------------|------------------------------|
E|----------------------------------------|------------------------------|

e|--------------------|----------------------------------------|
B|--------------------|----------------------15----------------|
G|--14~---------------|--------12-12~-----------14b--14r-12----|
D|--------------------|--12h14---------14-12----------------14-|
A|--------------------|----------------------------------------|
E|--------------------|----------------------------------------|

e|----------------------------------------|-------------15-----------------|
B|----------------------15----------------|--13b---13b-----13r-13----12h13-|
G|--------12-12~-----------14b--14r-12----|--------------------------------|
D|--12h14---------14-12----------------14-|--------------------------------|
A|----------------------------------------|--------------------------------|
E|----------------------------------------|--------------------------------|

e|--------------------|------------------------------|
B|--12~---------------|------------------------------|
G|--------------------|--------------------------3---|
D|--------------------|------------------------5-3---|
A|--------------------|--5~-3-4-5~-3-4-5-3-5-3-5-----|
E|--------------------|------------------------------|

e|------------------------------|------------------------------|
B|------------------------------|------------------------------|
G|------------------------5-3---|--------------------------3---|
D|------------------------5-3---|------------------------5-3---|
A|--5~-3-4-5~-3-4-5-3-5-3-------|--5~-3-4-5~-3-4-5-3-5-3-5-----|
E|------------------------------|------------------------------|

e|----------------------------|------------------------------|
B|----------------------------|------------------------------|
G|----------------------5-3---|--------------------------3b--|
D|----------------5--3--5-3---|--5--3-4-5-5-3-5----5-5-5-----|
A|--5~-3-4-5~-3-4-5--3--------|------------------5-----------|
E|----------------------------|------------------------------|

e|------------------------------|------------------------------|--------------|
B|------------------------------|------------------------------|--------------|
G|------------------------5-3b--|--------------------------3b--|--------------|
D|--5--3-4-5-5-3-5----5-5-------|--5--3-4-5-5-3-5----5-5-5-----|--5--3--5--3--|
A|------------------5-----------|------------------5-----------|--------------|
E|------------------------------|------------------------------|--------------|

e|-------------------|------------------------|------------------------------|
B|-------------------|------------------------|------------------------------|
G|--5r---------------|--5r--3-5r--3-----------|--------------------------3---|
D|-------------------|--------------5----5/---|------------------------5-3---|
A|-------------------|------------------------|--5~-3-4-5~-3-4-5-3-5-3-5-----|
E|-------------------|------------------------|------------------------------|

e|------------------------------|------------------------------|
B|------------------------------|------------------------------|
G|------------------------5-3---|--------------------------3---|
D|------------------------5-3---|------------------------5-3---|
A|--5~-3-4-5~-3-4-5-3-5-3-------|--5~-3-4-5~-3-4-5-3-5-3-5-----|
E|------------------------------|------------------------------|

e|----------------------------|------------------------------|
B|----------------------------|------------------------------|
G|----------------------5-3---|--------------------------3b--|
D|----------------5--3--5-3---|--5--3-4-5-5-3-5----5-5-5-----|
A|--5~-3-4-5~-3-4-5--3--------|------------------5-----------|
E|----------------------------|------------------------------|

e|------------------------------|------------------------------|--------------|
B|------------------------------|------------------------------|--------------|
G|------------------------5-3b--|--------------------------3b--|--------------|
D|--5--3-4-5-5-3-5----5-5-------|--5--3-4-5-5-3-5----5-5-5-----|--5--3--5--3--|
A|------------------5-----------|------------------5-----------|--------------|
E|------------------------------|------------------------------|--------------|

                                                                C5
e|-------------------|------------------------|--3------------------|
B|-------------------|------------------------|--3------------------|
G|--5r---------------|--5r--3-5r--3-----------|--0--------------x-x-|
D|-------------------|--------------5----5/---|--0--------------x-x-|
A|-------------------|------------------------|--x--------------x-x-|
E|-------------------|------------------------|--3------------------|

                   F5             C5         G5
e|---------------------|-------------------------|--3------------------|
B|--5------------------|--10----------5----------|--3------------------|
G|--5--------------x-x-|--10------x-x-5----------|--0------------------|
D|--5--------------x-x-|--10------x-x-5------x-x-|--0--------------x-x-|
A|--3--------------x-x-|--8-------x-x-3------x-x-|--x--------------x-x-|
E|---------------------|---------------------x-x-|--3--------------x-x-|

                   C5                    F5             C5         G5
e|--3------------------|---------------------|-------------------------|
B|--3------------------|--5------------------|--10----------5----------|
G|--0--------------x-x-|--5--------------x-x-|--10------x-x-5----------|
D|--0--------------x-x-|--5--------------x-x-|--10------x-x-5------x-x-|
A|--x--------------x-x-|--3--------------x-x-|--8-------x-x-3------x-x-|
E|--3------------------|---------------------|---------------------x-x-|

e|--3----------------|------------------------------|
B|--3----------------|------------------------------|
G|--0----------------|--------------------------3---|
D|--0----------------|------------------------5-3---|
A|--x----------------|--5~-3-4-5~-3-4-5-3-5-3-5-----|
E|--3----------------|------------------------------|

e|------------------------------|------------------------------|
B|------------------------------|------------------------------|
G|------------------------5-3---|--------------------------3---|
D|------------------------5-3---|------------------------5-3---|
A|--5~-3-4-5~-3-4-5-3-5-3-------|--5~-3-4-5~-3-4-5-3-5-3-5-----|
E|------------------------------|------------------------------|

e|----------------------------|------------------------------|
B|----------------------------|------------------------------|
G|----------------------5-3---|--------------------------3b--|
D|----------------5--3--5-3---|--5--3-4-5-5-3-5----5-5-5-----|
A|--5~-3-4-5~-3-4-5--3--------|------------------5-----------|
E|----------------------------|------------------------------|

e|------------------------------|------------------------------|--------------|
B|------------------------------|------------------------------|--------------|
G|------------------------5-3b--|--------------------------3b--|--------------|
D|--5--3-4-5-5-3-5----5-5-------|--5--3-4-5-5-3-5----5-5-5-----|--5--3--5--3--|
A|------------------5-----------|------------------5-----------|--------------|
E|------------------------------|------------------------------|--------------|

                                                                C5
e|-------------------|------------------------|--3------------------|
B|-------------------|------------------------|--3------------------|
G|--5r---------------|--5r--3-5r--3-----------|--0--------------x-x-|
D|-------------------|--------------5----5/---|--0--------------x-x-|
A|-------------------|------------------------|--x--------------x-x-|
E|-------------------|------------------------|--3------------------|

                   F5             C5         G5
e|---------------------|-------------------------|--3------------------|
B|--5------------------|--10----------5----------|--3------------------|
G|--5--------------x-x-|--10------x-x-5----------|--0------------------|
D|--5--------------x-x-|--10------x-x-5------x-x-|--0--------------x-x-|
A|--3--------------x-x-|--8-------x-x-3------x-x-|--x--------------x-x-|
E|---------------------|---------------------x-x-|--3--------------x-x-|

                   C5                    F5             C5         G5
e|--3------------------|---------------------|-------------------------|
B|--3------------------|--5------------------|--10----------5----------|
G|--0--------------x-x-|--5--------------x-x-|--10------x-x-5----------|
D|--0--------------x-x-|--5--------------x-x-|--10------x-x-5------x-x-|
A|--x--------------x-x-|--3--------------x-x-|--8-------x-x-3------x-x-|
E|--3------------------|---------------------|---------------------x-x-|

e|-----------------------|-------------------------|------------------------|
B|-----------------------|-------------------------|------------------------|
G|-----------------------|-----------------3-------|--5b---3---3------5r-3--|
D|-----------------------|--3--3b-----5~-----5-3---|-------------5----------|
A|-----------------------|-----------------------5-|------------------------|
E|--3-1-----------13/-1--|-------------------------|------------------------|

e|------------1--------6-----|----------5-------------|
B|---------3-----1/6---------|------------5/8------8--|
G|--5b--------------------5r-|------3h4---------------|
D|---------------------------|------------------------|
A|---------------------------|------------------------|
E|---------------------------|------------------------|

e|-----5-8----------------------|-----------------------------|
B|--8b-----8r-5-8----5-8--------|-----------------------------|
G|----------------7b-----7r-5---|--7-5------------------------|
D|----------------------------7-|------7-5--------------------|
A|------------------------------|----------7-6-5-3-5r-3-------|
E|------------------------------|-----------------------5~----|

e|---------3------------3-----|---------3-----|-----------------------|
B|--5b-------3---5b-------3---|--5b-------3---|--5--------5-----------|
G|--5b---------3-5b---------3-|--5b---------3-|--5-----------5-----10h|
D|----------------------------|---------------|-----------------------|
A|----------------------------|---------------|-----------------------|
E|----------------------------|---------------|-----------------------|

e|-----10----------10--------10----------10----|
B|---------------------------------------------|
G|--11----12-10h11-----10h11----12-10h11-----8h|
D|---------------------------------------------|
A|---------------------------------------------|
E|---------------------------------------------|

e|----8--------8------8--------8-----|
B|-----------------------------------|
G|--9h--10-8h9----8h9---10-8h9----10h|
D|-----------------------------------|
A|-----------------------------------|
E|-----------------------------------|

e|-----10----------10--------10----------10----|
B|---------------------------------------------|
G|--11----12-10h11-----10h11----12-10h11-----8h|
D|---------------------------------------------|
A|---------------------------------------------|
E|---------------------------------------------|

e|----8--------8------8--------8-----|
B|-----------------------------------|
G|--9h--10-8h9----8h9---10-8h9----10h|
D|-----------------------------------|
A|-----------------------------------|
E|-----------------------------------|

e|-----10----------10--------10----------10----|
B|---------------------------------------------|
G|--11----12-10h11-----10h11----12-10h11-----8h|
D|---------------------------------------------|
A|---------------------------------------------|
E|---------------------------------------------|

e|----8--------8------8--------8-----|
B|-----------------------------------|
G|--9h--10-8h9----8h9---10-8h9----10h|
D|-----------------------------------|
A|-----------------------------------|
E|-----------------------------------|

e|-----10----------10--------10----------10----|----8--------8--------6---6/---|
B|---------------------------------------------|----------------------6---6/---|
G|--11----12-10h11-----10h11----12-10h11-----8h|--9h--10-8h9---10-6h7----------|
D|---------------------------------------------|-------------------------------|
A|---------------------------------------------|-------------------------------|
E|---------------------------------------------|-------------------------------|

e|------------------------------|------------------------------|
B|------------------------------|------------------------------|
G|--------------------------3b--|------------------------5-3b--|
D|--5--3-4-5-5-3-5----5-5-5-----|--5--3-4-5-5-3-5----5-5-------|
A|------------------5-----------|------------------5-----------|
E|------------------------------|------------------------------|

e|------------------------------|--------------|-------------------|
B|------------------------------|--------------|-------------------|
G|--------------------------3b--|--------------|--5r---------------|
D|--5--3-4-5-5-3-5----5-5-5-----|--5--3--5--3--|-------------------|
A|------------------5-----------|--------------|-------------------|
E|------------------------------|--------------|-------------------|

                                            C5                    F5
e|------------------------|--3------------------|---------------------|
B|------------------------|--3------------------|--5------------------|
G|--5r--3-5r--3-----------|--0--------------x-x-|--5--------------x-x-|
D|--------------5----5/---|--0--------------x-x-|--5--------------x-x-|
A|------------------------|--x--------------x-x-|--3--------------x-x-|
E|------------------------|--3------------------|---------------------|

            C5         G5                                          C5
e|-------------------------|--3------------------|--3------------------|
B|--10----------5----------|--3------------------|--3------------------|
G|--10------x-x-5----------|--0------------------|--0--------------x-x-|
D|--10------x-x-5------x-x-|--0--------------x-x-|--0--------------x-x-|
A|--8-------x-x-3------x-x-|--x--------------x-x-|--x--------------x-x-|
E|---------------------x-x-|--3--------------x-x-|--3------------------|

                   F5             C5         G5
e|---------------------|-------------------------|--3------------------|
B|--5------------------|--10----------5----------|--3------------------|
G|--5--------------x-x-|--10------x-x-5----------|--0------------------|
D|--5--------------x-x-|--10------x-x-5------x-x-|--0--------------x-x-|
A|--3--------------x-x-|--8-------x-x-3------x-x-|--x--------------x-x-|
E|---------------------|---------------------x-x-|--3--------------x-x-|

e|----------------------------------------|
B|----------------------15----------------|
G|--------12-12~-----------14b--14r-12----|
D|--12h14---------14-12----------------14-|
A|----------------------------------------|
E|----------------------------------------|

e|----------------------------------------|------------------------------|
B|----------------------15----------------|--13b---13b---13--------------|
G|--------12-12~-----------14b--14r-12----|--------------------14r-12----|
D|--12h14---------14-12----------------14-|---------------------------14-|
A|----------------------------------------|------------------------------|
E|----------------------------------------|------------------------------|

e|----------------------------------------|
B|------15-----15-----15-----15-----------|
G|--14b----14b----14b----14b----14r-12----|
D|-------------------------------------14-|
A|----------------------------------------|
E|----------------------------------------|

e|-------------------------15-------------|
B|----------------------15b---------------|
G|--------12-12~----------------14r-12----|
D|--12h14---------14-12----------------14-|
A|----------------------------------------|
E|----------------------------------------|

e|-------------------------15-------------|-----13~------12--------|
B|--------13-13~--------15b-----15r-13----|--------------13--------|
G|--12h14---------14-12----------------13h|--14----------12--------|
D|----------------------------------------|------------------------|
A|----------------------------------------|------------------------|
E|----------------------------------------|------------------------|

e|--------------------|------------------|-------------------|
B|--12r---------------|------------------|--x----------------|
G|--------------------|------------------|--x----------------|
D|--------------------|------------------|--x----------------|
A|--------------------|------------------|--x----------------|
E|--------------------|------------------|-------------------|

e|--------------------|------------------|-------------------|
B|--12r---------------|------------------|--x----------------|
G|--------------------|------------------|--x----------------|
D|--------------------|------------------|--x----------------|
A|--------------------|------------------|--x----------------|
E|--------------------|------------------|-------------------|

e|------------------------|------------------------|------------------------|
B|------------------------|------------------------|------------------------|
G|------------------------|-----------------3b-----|--5~---3--4--5~---3--4--|
D|--5~---3--4--5~---3--4--|--5--3--5--3--5---------|------------------------|
A|------------------------|------------------------|------------------------|
E|------------------------|------------------------|------------------------|

e|------------------------|-------------------------|------------------------|
B|------------------------|-------------------------|------------------------|
G|--5--3--5--3--5--3b-----|----------------------5--|------3--4--5--3--5--3b-|
D|------------------------|--3~---1--2--3--0--3-----|------------------------|
A|------------------------|-------------------------|------------------------|
E|------------------------|-------------------------|------------------------|

e|-----------------------|-------------------------|------------------------|
B|-----------------------|-------------------------|------------------------|
G|-----------------3-----|--5--3--------3b---------|------------------------|
D|------5--3--5~------5--|--------5--3-------5--3--|--5~---3--4--5~---3--4--|
A|-----------------------|-------------------------|------------------------|
E|-----------------------|-------------------------|------------------------|

e|------------------------|------------------------|------------------------|
B|------------------------|------------------------|------------------------|
G|-----------------3b-----|--5~---3--4--5~---3--4--|--5--3--5--3--5--3b-----|
D|--5--3--5--3--5---------|------------------------|------------------------|
A|------------------------|------------------------|------------------------|
E|------------------------|------------------------|------------------------|

e|-------------------------|------------------------|-----------------------|
B|-------------------------|------------------------|-----------------------|
G|----------------------5--|------3--4--5--3--5--3b-|-----------------3-----|
D|--3~---1--2--3--0--3-----|------------------------|------5--3--5~------5--|
A|-------------------------|------------------------|-----------------------|
E|-------------------------|------------------------|-----------------------|

e|-------------------------|----------------------|---------------------|
B|-------------------------|----------------------|---------------------|
G|--5--3--------3b---------|-----------3----------|-----------3---------|
D|--------5--3-------5--3--|--5-----------5----5~-|------3-------5~-----|
A|-------------------------|----------------------|---------------------|
E|-------------------------|----------------------|---------------------|

e|----------------------|---------------------|---------------------|
B|--5r-----3--5r-----3--|--5r-----3--5~-------|--6------------x--5--|
G|--5r-----3--5r-----3--|--5r-----3--5~-------|--5------------x--5--|
D|----------------------|---------------------|---------------------|
A|----------------------|---------------------|---------------------|
E|----------------------|---------------------|---------------------|

e|-------------------|-----------------------|------------------------|
B|----------------3b-|-----------------3-----|--------------3--3/-----|
G|----------------3b-|-----------------3-----|--3--2--------3--3/-----|
D|-------------------|------5--3--5~------5--|--------5--3------------|
A|-------------------|-----------------------|------------------------|
E|-------------------|-----------------------|------------------------|

e|------------------------|------------------------------|
B|------------15b---------|--15b---15b---15b---15b-------|
G|------12----------------|------------------------------|
D|--12--------------------|------------------------------|
A|------------------------|------------------------------|
E|------------------------|------------------------------|

e|----------------------------------------|
B|--15b---15----14----13----------13--15--|
G|--------------------------15------------|
D|----------------------------------------|
A|----------------------------------------|
E|----------------------------------------|

e|--------------------------------------------------|
B|--13h-15h-13/-11h13h11h-13-11/10--11h10----10h11--|
G|----------------------------------------12--------|
D|--------------------------------------------------|
A|--------------------------------------------------|
E|--------------------------------------------------|

e|------------------10--15--------15----------|
B|--10------10/-13b---------18b-------18h-15--|
G|------12------------------------------------|
D|--------------------------------------------|
A|--------------------------------------------|
E|--------------------------------------------|

e|------15------15------15------15------15----------|
B|--18b-----18------18b-----18------18b-----18h-15--|
G|--------------------------------------------------|
D|--------------------------------------------------|
A|--------------------------------------------------|
E|--------------------------------------------------|

e|------15------15--------15----15----------|--18b-------21/-------|
B|----------18------18b-------------18h-15--|----------------------|
G|--17b-------------------------------------|----------------------|
D|------------------------------------------|----------------------|
A|------------------------------------------|----------------------|
E|------------------------------------------|----------------------|

e|--3--------3--------3--------3--------|--3--------3--------3--------3--------|
B|-----6h-3-----6h-3-----6h-3-----6h-3--|-----6h-3-----6h-3-----6h-3-----6h-3--|
G|--------------------------------------|--------------------------------------|
D|--------------------------------------|--------------------------------------|
A|--------------------------------------|--------------------------------------|
E|--------------------------------------|--------------------------------------|

e|--3--------3--------3--------3--------|--3--------3--------3--------3--------|
B|-----6h-3-----6h-3-----6h-3-----6h-3--|-----6h-3-----6h-3-----6h-3-----6h-3--|
G|--------------------------------------|--------------------------------------|
D|--------------------------------------|--------------------------------------|
A|--------------------------------------|--------------------------------------|
E|--------------------------------------|--------------------------------------|

e|------6--5h6h5--------------------|----------------------------|
B|--6/8----------8h6-8--5h6h8-5h6h8-|--6h5--------3-----3--------|
G|----------------------------------|------7h5-5b----5b----5b-5--|
D|----------------------------------|----------------------------|
A|----------------------------------|----------------------------|
E|----------------------------------|----------------------------|

e|------------------------------|-------------------------------|
B|------------------------------|-------------------------------|
G|--3h-5h-3--------3------------|-------------------------------|
D|-----------3h-5-----5~-----3--|--5h-5-----------3-------------|
A|------------------------------|--------5--3h-5-----3--1-------|
E|------------------------------|--------------------------3~---|

e|-----------------------|------------------------|--------------------------|
B|-----------------------|------------------------|--------------------------|
G|-----------------------|------------------------|--------------------------|
D|-----------------------|------------------------|--------3-----5--3--------|
A|-----------------1-----|--3r-----1--3--1--------|--3/-5-----5--------5--3--|
E|--1b---1--3~--------3--|------------------3--x--|--------------------------|

e|-------------------------|------------------------|-----------------------|
B|--3----------------------|--3---------------------|--3--------------------|
G|--3----------------3-----|--3---------------3-----|--3--------------3-----|
D|-------5h3h5~---5-----5--|-------5--5~---5-----5--|---------5~---5-----5--|
A|-------------------------|------------------------|-----------------------|
E|-------------------------|------------------------|-----------------------|

e|----------3-----3--------|-----3---------------|-----3--------------3--|
B|-------3--------3--3-----|--3-----5b-----------|--3-----5b-------3-----|
G|--5b---------5b-------5b-|--------5b-----------|--------5b-------------|
D|-------------------------|---------------------|-----------------------|
A|-------------------------|---------------------|-----------------------|
E|-------------------------|---------------------|-----------------------|

e|--------------------|------------3-------|--3---------3-6h3----8r---|
B|--5b-------------5b-|---------------6b---|-----6b---6-------6-------|
G|--5b-------------5b-|--------------------|--------------------------|
D|--------------------|--------------------|--------------------------|
A|--------------------|--------------------|--------------------------|
E|--------------------|--------------------|--------------------------|

e|--6-----8h-6--------10b-10--|--9--8------8--9--10--------|
B|-----8--------8h-6----------|--------10b-----------10r---|
G|----------------------------|----------------------------|
D|----------------------------|----------------------------|
A|----------------------------|----------------------------|
E|----------------------------|----------------------------|

e|---------------------------|-----------------------10--|
B|--8-----10-----8----10-----|--8----10-----8--10b-------|
G|-----9------9-----------9--|-----------9---------------|
D|---------------------------|---------------------------|
A|---------------------------|---------------------------|
E|---------------------------|---------------------------|

e|--------------------------|----------------------------|
B|--10-----8~---10-----8~---|--10-----8~---10-----8--10--|
G|------9-----------9-------|------9-----------9---------|
D|--------------------------|----------------------------|
A|--------------------------|----------------------------|
E|--------------------------|----------------------------|

e|------------------------------------|
B|--8h-10--11--10h11h10h8-----10------|
G|------------------------10------10--|
D|------------------------------------|
A|------------------------------------|
E|------------------------------------|

e|---------------------------------------------|
B|--8------10h11h10----10h-11h-13--10h-11h-13--|
G|-----12-----------12-------------------------|
D|---------------------------------------------|
A|---------------------------------------------|
E|---------------------------------------------|

e|--10h-12------10h-12h-13--15h-12h-13--17--13h15-|
B|----------13------------------------------------|
G|------------------------------------------------|
D|------------------------------------------------|
A|------------------------------------------------|
E|------------------------------------------------|

e|--15h-17------18--15h17-15------15--------15--|
B|----------18----------------18------18b-------|
G|----------------------------------------------|
D|----------------------------------------------|
A|----------------------------------------------|
E|----------------------------------------------|

e|------------------------------------------------|--x-18b------------------|
B|--18h15-18h15----15-18h15----15----15-----------|----17b------17~---14----|
G|--------------18----------18----18----17r-15----|-------------------------|
D|---------------------------------------------17-|-------------------------|
A|------------------------------------------------|-------------------------|
E|------------------------------------------------|-------------------------|

e|--------------------------12-13h15h13h12----13h12-|
B|--------------12h-13h-15-----------------15-------|
G|--12h-14h-15--------------------------------------|
D|--------------------------------------------------|
A|--------------------------------------------------|
E|--------------------------------------------------|

e|--------12----------------------------------------|
B|--15-13----15h13-12-15-13h12----14h13h12----15h14h|
G|-----------------------------15----------14-------|
D|--------------------------------------------------|
A|--------------------------------------------------|
E|--------------------------------------------------|

e|------------------------------------------------|
B|--13h12-------12h10-------10--------------------|
G|--------14h12-------12h10----12h10/9-12h10h9----|
D|---------------------------------------------12-|
A|------------------------------------------------|
E|------------------------------------------------|

e|-------------------------------------------|----------------------------------|
B|-------------------------------------------|----------------------------------|
G|--10h9-------9-----------------------------|----------------------------------|
D|-------12-10---12h10-9-12-10r----10r----10-|--10----------10----------10--10--|
A|------------------------------13-----13----|----------------------------------|
E|-------------------------------------------|--------10-10-------10-10---------|

e|--------------------------------------------------|
B|--------------------------------------------------|
G|--------------------------------------------------|
D|--------------------------15h-16h-17--15h-16h-17--|
A|--15h-16h-17--15h-16h-17--------------------------|
E|--------------------------------------------------|

e|--------------------------------------------------------|
B|-----------------------------15h16h17----------15h16h17-|
G|--15h16h17----------15h16h17----------15h16h17----------|
D|-----------15h16h17-------------------------------------|
A|--------------------------------------------------------|
E|--------------------------------------------------------|

e|--------------15----------------|------------------------------|
B|--16h-17h-18------18b-----------|------------------------------|
G|--------------------------------|------------------------------|
D|--------------------------------|------------------------------|
A|--------------------------15/---|------------------------------|
E|--------------------------------|--3--1-2-3--1-2-3--1-2-3--1-2-|

e|------------------------------|--------------------------------------|
B|------------------------------|--------------------------------------|
G|------------------------------|--------------------------------------|
D|------------------------------|--3--4--5--3--4--5--3--4--5--3--4--5--|
A|------------------------------|--------------------------------------|
E|--3--1-2-3--1-2-3--1-2-3--1-2-|--------------------------------------|

e|--------------------------------------|--------------------------|
B|--------------------------------------|--------------------------|
G|--------------------------------------|-----------3---------3b---|
D|--3--4--5--3--4--5--3--4--5--3--4--5--|--3--4--5----5~-----------|
A|--------------------------------------|--------------------------|
E|--------------------------------------|--------------------------|

e|---------------------|-------------------|------------------------|
B|---------------------|-------------------|------------------------|
G|----------5r--3h5~---|--5b---------------|--5--3--5-----3----3b---|
D|---------------------|-------------------|-----------5------------|
A|---------------------|-------------------|------------------------|
E|---------------------|-------------------|------------------------|

e|-------------------|------------12------------------|
B|-------------------|--------15------15--12----------|
G|-------------------|--14b-------------------14b-14--|
D|--5~---------------|--------------------------------|
A|-------------------|--------------------------------|
E|-------------------|--------------------------------|

e|--------------------------------|----------------------------------|
B|--------------------------------|----------------------------------|
G|--12------14------12~---12--12--|--14h12-----12--12~---12--14--12--|
D|------14------14----------------|--------14------------------------|
A|--------------------------------|----------------------------------|
E|--------------------------------|----------------------------------|

e|------------------------------|--------------------------------|
B|--------12--15----------------|--------------------13--14--15--|
G|--14b-----------14r---12------|--14------12--14b---------------|
D|--------------------------14--|------14------------------------|
A|------------------------------|--------------------------------|
E|------------------------------|--------------------------------|

e|----------------------------------|--------------------------------------|
B|------13--15------13--15------13--|--15------13--15------13--15h13----13-|
G|--14b---------14b---------14b-----|------14b---------14b-----------15b---|
D|----------------------------------|--------------------------------------|
A|----------------------------------|--------------------------------------|
E|----------------------------------|--------------------------------------|

e|--------------------------------------------------|
B|--15h13----13-15h13----13-15h13----13-15h13----13-|
G|--------15b---------15b---------15b---------15b---|
D|--------------------------------------------------|
A|--------------------------------------------------|
E|--------------------------------------------------|

e|--------------------------------------------------|
B|--15h13----13-15h13----13-15h13----13-15h13----13-|
G|--------15b---------15b---------15b---------15b---|
D|--------------------------------------------------|
A|--------------------------------------------------|
E|--------------------------------------------------|

e|--------------------------------------------------|
B|--15h13----13-15h13----13-15h13----13-15h13----13-|
G|--------15b---------15b---------15b---------15b---|
D|--------------------------------------------------|
A|--------------------------------------------------|
E|--------------------------------------------------|

e|--------------------------------------------------|
B|--15h13----13-15h13----13-15h13----13-15h13----13-|
G|--------15b---------15b---------15b---------15b---|
D|--------------------------------------------------|
A|--------------------------------------------------|
E|--------------------------------------------------|

e|----------------------------------------------------------------|
B|--15b-13h15h13/12-13-12h13-12-------12--------------------------|
G|------------------------------14h12----14r-12----14h12----------|
D|----------------------------------------------14-------12h14-12r|
A|----------------------------------------------------------------|
E|----------------------------------------------------------------|

e|-------------------|---------------------------------------------|
B|-------------------|---------------------------------------------|
G|----------------5b-|--5r-3-5h3---5r-3---5---3b--3b---------------|
D|-------------------|-----------5------5---5---5---5-3------------|
A|-------------------|----------------------------------5-4-3-3r-1-|
E|-------------------|---------------------------------------------|

e|-----------------------|------------------|------------------|
B|-----------------------|------------------|------------------|
G|--------------------3b-|------------------|------------------|
D|--------5~-------------|------------------|------------------|
A|--3-1-2----------------|------------------|------------------|
E|-----------------------|------------------|------------------|

e|-------------------||
B|-------------------||
G|-------------------||
D|--5----------------||
A|--5----------------||
E|--3----------------||

************************************

| x  Dead note
| r  Release
| b  Bend
| ~  Vibrato
| h  Hammer-on
| /  Slide up

************************************
Suggest correction
comments
print report bad tab
9 comments total. Showing first comments.
0 reply
somebodyelse 10 Jan 17, 2004 07:00 PM

this is one long tab

0 reply
the anus 510 Jan 30, 2004 07:00 PM

its 15 pages to print

0 reply
griff1987 55 Mar 22, 2004 07:00 PM

im sure its all correct but without lyrics (or even timing) how is anybody supposed to to be able to jump to a certain bit of the song?

guest
Wanna post a correction for this tab? Suggest correction