Oops, an error
Loading. Please wait.

Paradise City Tab

version 3
version 3
911,563 views 1,623 this week
90 commentsread comments
1 2 3 4 5
excellent!
x 228
add to favorites
launch autoscroll
font size
0
reset
how to read this tab
guitar tuner
Tab Pro tools
  • play this tab
  • loop segment
  • change instrument
  • show fretboard
  • metronome
×
Best way to learn
"Paradise City"
Autoscroll
slow
fast
+/-
esc
set tempo
stop
G5   3 x 0 0 3 3
C5   x 3 5 5 x x
C    x 3 5 5 5 x
F5   x 8 10 10 x x
F    x 8 10 10 10 x
D5   x 5 7 7 x x
Bb   x 1 3 3 3 x
G5(type 2) 3 5 5 x x x 

Gtr I (D# A# F# C# G# D#) - 'Izzy Stradlin - clean electric w/chorus'
Gtr II (D# A# F# C# G# D#) - 'Izzy Stradlin - Rhythm w/dist'
Gtr III (D# A# F# C# G# D#) - 'Slash - Rhythm & Lead w/dist'
Gtr IV (D# A# F# C# G# D#) - 'Keyboard arr. for guitar'

  Intro
      Q=104
     4/4
      Gtr I
       Q  S S S S +S  S E S S S S   S S S S S S S S +S  S E S S S S
D#||--^3--3-----3-(3)-----3-------|---------3-----3-(3)-----3-------|
A#||o-^0----0---------0-----0---0-|-1---------1---------1-----1---1-|
F#||--^0------0---------0-----0---|-0-----------0---------0-----0---|
C#||--^0--------------------------|-0h2---2-------------------------|
G#||o-^2--------------------------|-----3---------------------------|
D#||--^3--------------------------|---------------------------------|
 |-Rhy Fig 1

    S E S S S S S S S S S S S S S   E. S S E S +S  S T T S S S T T S
D#|-------3---------------3-------|----3-----3-(3)--------------------||
A#|-1---1---1---1-1-----1---1---0-|-0----0---------0-----0---0-------o||
F#|-0h2-------2---0-----------0---|-0------0---------0h2---0-------0--||
C#|-0h3-----------0h2-------------|-0--------------------------0h2----||
G#|-------------------3-----------|-2--------------------------------o||
D#|-------------------------------|-3---------------------------------||
                                                      end Rhy Fig 1-|

   Chorus
   Rhy Fig 1 x2


                                     1.
    Gtr II
|-Rhy Fig 2
    G5(type 2)       C5               F5        C5    G
     H..       S S    H..       S S    Q.   S S  Q.   S S
     |         | |    |         | |    |    | |  |    | |
     /         x x    /         x x    /    x x  /    o /

      Gtr IV
       W                W                H         H
D#||--15-------------|----------------|-13--------17--------|
A#||o----------------|-13-------------|---------------------|
F#||-----------------|----------------|---------------------|
C#||-----------------|----------------|---------------------|
G#||o----------------|----------------|---------------------|
D#||-----------------|----------------|---------------------|
 |-Riff A (take 2nd ending) 

    end Rhy Fig 2-| 2.
  G5                 F5        C5    G     G5
   H..       S S      Q.   S S  Q.   S S    H..       S S
   |         | |      |    | |  |    | |    |         | |
   /         x x      /    x x  /    x x    /         x x

     W                  H         H           W
D#|-15--------------||-13------------------|----------------|
A#|----------------o||-----------17--------|-15-------------|
F#|-----------------||---------------------|----------------|
C#|-----------------||---------------------|----------------|
G#|----------------o||---------------------|----------------|
D#|-----------------||---------------------|----------------|
                                               end Riff A-|

  w/Rhy Fig 2
      Gtr III
                  ~~~~~~~
       S    S  S  S  +E   S  S  S  E.    S     +S   S  S
D#||-----------------------------------------------------|
A#||o--------------------------15------------------------|
F#||----------12-12-(12)----------14b16-14b16r(14)-12----|
C#||--12h==14------------14-12------------------------14-|
G#||o----------------------------------------------------|
D#||-----------------------------------------------------|

                  ~~~~~~~
       S    S  S  S  +E   S  S  S  E.    S     +S   S  S
D#|----------------------------------------------------|
A#|--------------------------15------------------------|
F#|---------12-12-(12)----------14b16-14b16r(14)-12----|
C#|-12h==14------------14-12------------------------14-|
G#|----------------------------------------------------|
D#|----------------------------------------------------|


   1.
                                            ~~~~~
     Q      Q         Q    S     +S  S S    W
D#|--------------------------------------|------------------||
A#|-13b15--13b15-----13---10b12r(10)-8---|-10b12-----------o||
F#|------------------------------------9-|------------------||
C#|--------------------------------------|------------------||
G#|--------------------------------------|-----------------o||
D#|--------------------------------------|------------------||


  2.
                                                $
                                                Gtrs II, III
--------------------------------------------------------------------------|
     Q      E.       S  E  +Q    S  S    W            E S S E S S S S S S S E.
D#|-----------------15----------------|-----------||----------------------------|
A#|-13b15--13b15=======13r(13)--12h13-|-12--------||o---------------------------|
F#|-----------------------------------|-----------||------------------------3---|
C#|-----------------------------------|-----------||----------------------5-3---|
G#|-----------------------------------|-----------||o-5-3-4-5-3-2-5-3-5-3-5-1---|
D#|-----------------------------------|-----------||--3-1-2-3-1-2-3-1-3-1-3-----|
                                                 |-Riff C          end Riff C-|

Riff C x3

 Verses
  $$
  Gtr II
  ~M--------------------|               ~M------------------|
    E S S S S S S S S S S S E.            E S S S S S S S S S S S E.
D#|-------------------------------------|-------------------------------------|
A#|-------------------------3-----------|-----------------------5-3-----------|
F#|-------------------------3-----------|-----------------------5-3-----------|
C#|-------------------------3-----------|-----------------------5-3-----------|
G#|-------------------------1-----------|-----------------------3-1-----------|
D#|-1-1-2-3-3-1-2-3-1-3-1-3-------------|-3-1-2-3-3-1-2-3-1-3-1---------------|
|
| Gtr III (substitue Riff 1 on D.S. and D.S.S. see end of score for Riff 1)
| PM--------------------|               PM------------------|
  | E S S S S S S S S S S S E      +S     E S S S S S S S S S S S E      +S
D#|-------------------------------------|-------------------------------------|
A#|-------------------------------------|-------------------------------------|
F#|-------------------------3b3.5==(3)r-|-----------------------5-3b3.5==(3)r-|
C#|-5-3-4-5-5-3-5-----5-5-5-------------|-5-3-4-5-5-3-5-----5-5---------------|
G#|-----------------5-------------------|-----------------5-------------------|
D#|-------------------------------------|-------------------------------------|


                                       2/4
  ~M--------------------|               ~ PM|
    E S S S S S S S S S S S E.            E S S S E.
D#|-------------------------------------|--------------|
A#|-------------------------3-----------|---------3----|
F#|-------------------------3-----------|---------3----|
C#|-------------------------3-----------|---------3----|
G#|-------------------------1-----------|---------1----|
D#|-3-1-2-3-3-1-2-3-1-3-1-3-------------|-3-1-2-3------|
|
| PM--------------------|               PM---------|
  | E S S S S S S S S S S S E      +S     e e   e    e
D#|-------------------------------------|--------------|
A#|-------------------------------------|--------------|
F#|-------------------------3b3.5==(3)r-|--------------|
C#|-5-3-4-5-5-3-5-----5-5-5-------------|-5-3---5----3-|
G#|-----------------5-------------------|--------------|
D#|-------------------------------------|--------------|


                                1.
   4/4
                                                             ~~~
    W                            S    +S  +S  S S    S  S S +Q   +E    E
D#|----------------------------|--------------------------------------------||
A#|-5--------------------------|-------------------------------------------o||
F#|-5--------------------------|--------------------------------------------||
C#|-5--------------------------|--------------------------------------------||
G#|-3--------------------------|-3b4==(3)r(3)-1-3----1---------------------o||
D#|----------------------------|------------------------1-3-(3)--(3)s(10)\--||
|
  | Q     +E  +E     +E  +Q.     S    +S  +S  S S   +S  S S +Q   +E    E
D#|----------------------------|--------------------------------------------||
A#|----------------------------|-------------------------------------------o||
F#|-5b7===(5)r(5)b7==(5)r(5)---|-5b6==(5)r(5)-3-5b6r(5)-3-------------------||
C#|----------------------------|--------------------------5-(5)--(5)s(12)\--||
G#|----------------------------|-------------------------------------------o||
D#|----------------------------|--------------------------------------------||


    2.,D.S.,D.S.S.
                                 ~~~
     S    +S  +S  S S    S  S S +Q   +E    E
D#|--------------------------------------------||
A#|--------------------------------------------||
F#|--------------------------------------------||
C#|--------------------------------------------||
G#|--3b4==(3)r(3)-1-3----1---------------------||
D#|-------------------------1-3-(3)--(3)s(10)\-||
|
  |  S    +S  +S  S S   +S  S S +Q   +E    E
D#|--------------------------------------------||
A#|--------------------------------------------||
F#|--5b6==(5)r(5)-3-5b6r(5)-3------------------||
C#|---------------------------5-(5)--(5)s(12)\-||
G#|--------------------------------------------||
D#|--------------------------------------------||


 Chorus
  Rhy Fig 2


                         To Coda                        D.S. al Coda (no repeat)
                         To Coda
Rhy Fig 2
|---------------|---------------|-------------------|----------------||


    &
    Gtr II
          PM|
     Q.   S S H      S E. +H        E   E
D#|----------------|-----------------------||
A#|-10--------5----|-----------------------||
F#|-10----5-5-5----|-----------------------||
C#|-10----5-5-5----|-----------------------||
G#|--8----3-3-3----|-----------------------||
D#|----------------|-3-1--(1)----/(13)s(1)-||


   Guitar Solo
  w/Riff C x4
  Gtr III
                      ~
    E Q        +E     Q       S S  S S   E.     +S   E.   S Q       S   +S  E
D#|------------------------------------|--------------------------------------|
A#|------------------------------------|--------------------------------------|
F#|---------------------------3--------|-5b7====(5)r-3----3---------5b7r(5)-3-|
C#|-3-3b5======(3)r---5---------5--3---|--------------------5-----------------|
G#|----------------------------------5-|--------------------------------------|
D#|------------------------------------|--------------------------------------|


            |---3---|
  Q        +E   E   E    Q       E    E      +E  +E    S S S  S +Q..            S
|-------------------1------------6---------|---------------5----------------------|
|---------------3-------/6-----------------|-----------------/8-(8)-------------8-|
|-5b7======(5)r-----------------------5b7==|=(5)r(5)---3h4------------------------|
|------------------------------------------|--------------------------------------|
|------------------------------------------|--------------------------------------|
|------------------------------------------|--------------------------------------|


    E    S S S     +S  S S E     S S S    +S  S S
D#|------5-8---------------------------------------|
A#|-8b10-----8pb10r(8)-5-8-------5-8---------------|
F#|------------------------7b9-------7pb9r(7)-5----|
C#|---------------------------------------------7--|
G#|------------------------------------------------|
D#|------------------------------------------------|
|
|---------------------------------------|
  | E    S S E         S S S   S S S S     E.
D#|------------------------------------------------|
A#|------------------------------------------------|
F#|----------------------------------------5-------|
C#|----------------------------------7-----5-------|
G#|-7----5-6-7---------5-6-7---5-7-5-7-----3-------|
D#|-5----3-4-5---------3-4-5---3-5-3-5-------------|


      PM--------|           ~~~~~~
    S S S S S S S S S   +S  S S +Q
D#|------------------------------------|
A#|------------------------------------|
F#|-7-5--------------------------------|
C#|-----7-5----------------------------|
G#|---------7-6-5-3-5b7r(5)-3----------|
D#|---------------------------5-(5)----|
|
| ~M----------------------------------
  | E   S S E   S S S    S  S S  S  E.
D#|------------------------------------|
A#|------------------------------------|
F#|------------------------------7--5--|
C#|------------------------------7--5--|
G#|-7---5-6-7---5-6-7----5--7-5--5--3--|
D#|-5---3-4-5---3-4-5----3--5-3--------|


                                                  2/4
                |--3--|                    |-3-|                 |-3-|
    Q        +E   S S   S Q          +E      S S S   Q        +E   S S S
D#|---------------3--------------------------3-----|---------------3-----|
A#|-5b6======(5)r---3-----5b6========(5)r------3---|-5b6======(5)r---3---|
F#|-5b6======(5)r-------3-5b6========(5)r--------3-|-5b6======(5)r-----3-|
C#|------------------------------------------------|---------------------|
G#|------------------------------------------------|---------------------|
D#|------------------------------------------------|---------------------|
|
|---------------------------------------|          ~~~~
  | E    S S  E   S   S   S    S S S  S   E.         E    S S  e   e
D#|------------------------------------------------|---------------------|
A#|------------------------------------------------|---------------------|
F#|---------------------------------------3--------|---------------------|
C#|---------------------------------------3--------|-----------5---3-----|
G#|-5----3-4--5---3---4---5----3-5-3--5---1--------|-5----3-4--5---3-----|
D#|-3----1-2--3---1---2---3----1-3-1--3------------|-3----1-2--3---1-----|


  C5                 D5
 4/4
  Gtr II
  W                   S  S  S  S  E    S  S  S  S  S  S  E    S S
  |                   |  |  |  |  |    |  |  |  |  |  |  |    | |
  /                   /  /  /  /  /    x  x  /  /  /  /  /    x x

    Gtr III
    H    E Q  S  S      S  S  S  S  S  S S  S  S  S  S  S  S  S S S
D#|----------------||-----10----------10---------10----------10-----|
A#|-5----5---------||o----------------------------------------------|
F#|-5------5----10h||==11----12-10h11------10h11----12-10h11------8-|
C#|----------------||-----------------------------------------------|
G#|----------------||o----------------------------------------------|
D#|----------------||-----------------------------------------------|


  C5
  S S  S S E    S S S  S  S S E    S  S
  | |  | | |    | | |  |  | | |    |  |
  / /  / / /    x x /  /  / / /    x  x

    S S  S S S  S S S S  S  S S S  S S  S
D#|---8--------10-------10--------10---------|
A#|------------------------------------------|
F#|-9---10-8h9------8h9----10-8h9------10h===|
C#|------------------------------------------|
G#|------------------------------------------|
D#|------------------------------------------|


  D5
   S  S  S  S  E    S  S  S  S  S  S  E    S S
   |  |  |  |  |    |  |  |  |  |  |  |    | |
   /  /  /  /  /    x  x  /  /  /  /  /    x x

     S  S  S  S  S  S S  S  S  S  S  S  S  S S S
D#|----10----------10---------10----------10-----|
A#|----------------------------------------------|
F#|-11----12-10h11------10h11----12-10h11------8h|
C#|----------------------------------------------|
G#|----------------------------------------------|
D#|----------------------------------------------|


 1.                                         2.
                                                      D.S.S. al Dbl. Coda
  C5                                        C                 Bb
  S S  S S E    S S S  S  S S E    S  S     H                 H
  | |  | | |    | | |  |  | | |    |  |     |                 |
  / /  / / /    x x /  /  / / /    x  x     /                 /

    S S  S S S  S S S S  S  S S S  S S  S     S S  S S S S  S S S E. +Q
D#|---8--------10-------10--------10-------||---8--------8--------6--(6)\---||
A#|---------------------------------------o||---------------------6--(6)\---||
F#|-9---10-8h9------8h9----10-8h9------10h=||=9---10-8h9---10-6h7-----------||
C#|----------------------------------------||-------------------------------||
G#|---------------------------------------o||-------------------------------||
D#|----------------------------------------||-------------------------------||


  &&
  F        C5   G     G5
  Q.   S S Q.   S S   H..       S S
  |    | | |    | |   |         | |
  /    x x /    o /   /         x x
|-------------------|---------------||


Riff A + Riff B + Rhy Fig 2


w/Riff A + Rhy Fig 2 (1st 3 bars)

                ~~~~~~~
     S    S  S  S  +E   S  S  S  E.    S     +S   S  S
D#|----------------------------------------------------|
A#|--------------------------15------------------------|
F#|---------12-12-(12)----------14b16-14b16r(14)-12----|
C#|-12h==14------------14-12------------------------14-|
G#|----------------------------------------------------|
D#|----------------------------------------------------|


                ~~~~~~~                                         ~~~~~~~~
     S    S  S  S  +E   S  S S  E     S  S     +S   S  S    S   E.  +Q       H
D#|----------------------------------15------------------|-----13--(13)-----12--------|
A#|----------------------------15b17----15b17r(15)-13----|------------------13--------|
F#|---------13-13-(13)--------------------------------13h|=14---------------12--------|
C#|-12h==14------------14-12-----------------------------|----------------------------|
G#|------------------------------------------------------|----------------------------|
D#|------------------------------------------------------|----------------------------|

  G5
   W
   |
   /

     H         +H
D#|-------------------||
A#|-12pb13r===(12)----||
F#|-------------------||
C#|-------------------||
G#|-------------------||
D#|-------------------||

  G5
   +W           +W           +W                   +W           +H.      Q
    |            |            |                    |            |       |
    /            /            /                    /            /       x

     +W            W            H         +H        +W            W
D#|-------------|------------|-------------------|-------------|-------------||
A#|-(12)--------|--x/--------|-12pb13r===(12)----|-(12)--------|--x/---------||
F#|-------------|--x/--------|-------------------|-------------|--x/---------||
C#|-------------|--x/--------|-------------------|-------------|--x/---------||
G#|-------------|--x/--------|-------------------|-------------|--x/---------||
D#|-------------|------------|-------------------|-------------|-------------||


    Double time Q=208
 |-Rhy Fig 3
    G5
    Q  E E E Q   E   E E E E E Q        E
    |  | | | |   |   | | | | | |        |
    /  / / / /   /   / / / / / /        /

      ~      ~
      Q  E E Q   E E   E E E E E Q       +E
D#||-----------------|------------------------|
A#||o----------------|------------------------|
F#||-----------------|-----------3b3.5===(3)r-|
C#||--5--3-4-5---3-4-|-5-3-5-3-5--------------|
G#||o----------------|------------------------|
D#||-----------------|------------------------|


  C5
  Q  E E E Q   E   E E E E E Q        E
  |  | | | |   |   | | | | | |        |
  /  / / / /   /   / / / / / /        /

    ~      ~
    Q  E E Q   E E   E E E E E Q       +E
D#|----------------|-------------------------|
A#|----------------|-------------------------|
F#|-5--3-4-5---3-4-|-5-3-5-3-5-3b3.5===(3)r--|
C#|----------------|-------------------------|
G#|----------------|-------------------------|
D#|----------------|-------------------------|


  F5                C5
  W                  W
  |                  |
  /                  /

    ~
    Q  E E E E E  E   +Q   E E E E E E
D#|-----------------|-----------------------|
A#|-----------------|-----------------------|
F#|--------------/5-|-(5)--3-4-5-3-5-3b3.5==|
C#|-3--1-2-3-0-3----|-----------------------|
G#|-----------------|-----------------------|
D#|-----------------|-----------------------|


  G5(type 2)                       end Rhy Fig 3-|
   Q       E E Q.    E   E E E E Q         E E
   |       | | |     |     |   | |         | |
   /       / / /     /     /   / /         / /

                 ~~          PM--|             PM
    +E  +E   E E Q   E E   E E E E E    +E   E E
D#|----------------------|------------------------||
A#|----------------------|-----------------------o||
F#|-(3)-(3)r---------3---|-5-3-----3b4==(3)r------||
C#|----------5-3-5-----5-|-----5-3-----------5-3--||
G#|----------------------|-----------------------o||
D#|----------------------|------------------------||


  w/Rhy Fig 3 x9.5
    ~        ~~~~~~~~~~~~        ~~
    Q  Q   E Q.      +Q    Q   E Q.
D#|----------------|-------------------|
A#|----------------|-------------------|
F#|--------3-------|-----------3-------|
C#|-5--3-----5-----|-(5)---3-----5-----|
G#|----------------|-------------------|
D#|----------------|-------------------|


                                                   ~
    E    +E  +E  E E    +E  +E  E   E    +E  +E  E H
D#|-------------------------------|-----------------------|
A#|-5b6==(5)r(5)-3-5b6==(5)r(5)-3-|-5b6==(5)r(5)-3-5------|
F#|-5b6==(5)r(5)-3-5b6==(5)r(5)-3-|-5b6==(5)r(5)-3-5------|
C#|-------------------------------|-----------------------|
G#|-------------------------------|-----------------------|
D#|-------------------------------|-----------------------|


                                                   ~~
    H.      E E   +H..       E   +E       +E   E E Q   E E   E E E E E +E   Q
D#|-------------|--------------|---------------------------|--------------------|
A#|-6-------x-5-|-(5)--------3-|-(3)b3.5==(3)r---------3---|---------3-(3)\-----|
F#|-5-------x-5-|-(5)--------3-|-(3)b3.5==(3)r---------3---|-3-2-----3-(3)\-----|
C#|-------------|--------------|---------------5p3-5-----5-|-----5-3------------|
G#|-------------|--------------|---------------------------|--------------------|
D#|-------------|--------------|---------------------------|--------------------|



                                |-------3-------|
      E  E E  E      +H           Q       Q       Q       H
D#|----------------------------|------------------------------------|
A#|----------15b18==(15)r------|-15b18---15b18---15b18---15b18------|
F#|-----12---------------------|------------------------------------|
C#|-/14------------------------|------------------------------------|
G#|----------------------------|------------------------------------|
D#|----------------------------|------------------------------------|



   |----3-----|    |-----3------|    |---3---|   |--3--|   |--3---|
     Q     q    q    q    Q  E    E    E  E    E   S  S  S  +S   S  S  E  S  S  S  S  E
D#|---------------------------------|-----------------------------------------------------|
A#|-15b18-15---14---13------13---15-|-13h15p==13\-11h13p11-(11)h13p11s10-11p10----10h11---|
F#|----------------------15---------|------------------------------------------12---------|
C#|---------------------------------|-----------------------------------------------------|
G#|---------------------------------|-----------------------------------------------------|
D#|---------------------------------|-----------------------------------------------------|



   |--3--|  |---3----|         |--3--|    |---3----|  |---3----|  |--3--|     |--3--|
     E  E  E  E     E  E  Q      E  E  E    E     E  E  E  E     E  E  E  E     E  S  E.
D#|----------------10-15--------15-------|-------15----15-------15----15-------15--------|
A#|-10----10-13b15-------18b20-----18p15-|-18b20----18----18b20----18----18b20----18p15--|
F#|----12--------------------------------|-----------------------------------------------|
C#|--------------------------------------|-----------------------------------------------|
G#|--------------------------------------|-----------------------------------------------|
D#|--------------------------------------|-----------------------------------------------|



   |---3----|  |3-|            |---3---|
     E     E  E  E  Q       Q    E  E    E    H            +Q     Q
D#|-------15----15---------15---15---------|-18b21========(18)r\-------|
A#|----------18----18b20-----------18p==15-|---------------------------|
F#|-17b19----------------------------------|---------------------------|
C#|----------------------------------------|---------------------------|
G#|----------------------------------------|---------------------------|
D#|----------------------------------------|---------------------------|



  |-3-| |--3--| |--3--| |--3--|   |--3--| |--3--| |--3--| |--3--|
    E E E E E   E E E   E E E   E   E E   E E E   E E E   E E E   E
D#|-3-----3-------3-------3-------|-3-------3-------3-------3-------|
A#|---6p3---6p==3---6p==3---6p==3-|---6p==3---6p==3---6p==3---6p==3-|
F#|-------------------------------|---------------------------------|
C#|-------------------------------|---------------------------------|
G#|-------------------------------|---------------------------------|
D#|-------------------------------|---------------------------------|



  |-3-| |--3--| |--3--| |--3--|   |--3--| |--3--| |--3--| |--3--|
    E E E E E   E E E   E E E   E   E E   E E E   E E E   E E E   E
D#|-3-----3-------3-------3-------|-3-------3-------3-------3----------|
A#|---6p3---6p==3---6p==3---6p==3-|---6p==3---6p==3---6p==3---6p==3----|
F#|-------------------------------|------------------------------------|
C#|-------------------------------|------------------------------------|
G#|-------------------------------|------------------------------------|
D#|-------------------------------|------------------------------------|



          |-3-|
    S S E S S S S S E S S S S S S   S S S S E   E E   E E   E
D#|-----6-5h6p5-------------------|---------------------------|
A#|-6s8---------8p6-8-5h6h8-5h6h8-|-6p5---------3-----3-------|
F#|-------------------------------|-----7p5-5b7---5b7---5b7-5-|
C#|-------------------------------|---------------------------|
G#|-------------------------------|---------------------------|
D#|-------------------------------|---------------------------|



                ~~
  |-3-| |--3--|         |--3--| |--3--|
    E E E E E   E Q.  E   E E   E E E   E  E E Q
D#|---------------------|-----------------------------|
A#|---------------------|-----------------------------|
F#|-3h5p3-------3-------|-----------------------------|
C#|-------3h5-----5p==3-|-5p3-----------3-------------|
G#|---------------------|-------5-3h5-----\3-1--------|
D#|---------------------|----------------------3------|



              ~~~                           PM|
    Q    E E +Q    E E   E    +E  +E  E E E E E
D#|--------------------|------------------------|
A#|--------------------|------------------------|
F#|--------------------|------------------------|
C#|--------------------|------------------------|
G#|----------------1---|-3b4==(3)r(3)-1-3-1-----|
D#|-1b2--1-3-(3)-----3-|--------------------3-x-|



                  PM          ~~~~~~
    E E E E E E E E   Q   S S E +E  E E E
D#|-----------------|---------------------|
A#|-----------------|-3-------------------|
F#|-----------------|-3---------------3---|
C#|-----3---5-3-----|-----5p3h5-(5)-5---5-|
G#|-3s5---5-----5-3-|---------------------|
D#|-----------------|---------------------|



         ~~~~~~             ~~~~~~
    Q  E E +E  E E E   Q.   E +E  E E E
D#|------------------|------------------|
A#|-3----------------|-3----------------|
F#|-3------------3---|-3------------3---|
C#|----5-5-(5)-5---5-|------5-(5)-5---5-|
G#|------------------|------------------|
D#|------------------|------------------|



    E    +E   E E E   E E E     E E E   +E     +H
D#|-------------3-----3-------|---3----------------------|
A#|-----------3-------3-3-----|-3---5b6r(5)b6==(5)r------|
F#|-5b7==(5)r-----5b7-----5b7-|-----5b6r(5)b6==(5)r------|
C#|---------------------------|--------------------------|
G#|---------------------------|--------------------------|
D#|---------------------------|--------------------------|



    E E Q      +Q     E E   H..             E
D#|---3-----------------3-|-------------------|
A#|-3---5b6====(5)r---3---|-5b6=============5r|
F#|-----5b6====(5)r-------|-5b6=============5r|
C#|-----------------------|-------------------|
G#|-----------------------|-------------------|
D#|-----------------------|-------------------|



    +Q      +Q    +E   E Q       E Q     S S S S E E    +E
D#|--------------------3-------|-3---------3-6p3---8b10r(8)p===|
A#|-(5)b6===(5)---(5)r---6b8---|---6b8---6-------6-------------|
F#|-(5)b6===(5)---(5)r---------|-------------------------------|
C#|----------------------------|-------------------------------|
G#|----------------------------|-------------------------------|
D#|----------------------------|-------------------------------|


    E E E E E E  E     e   e E  E    e e  E  E     +E
D#|-6---8p6-----10b12-10-|-9-8-------8-9-10------------|
A#|---8-----8p6----------|-----10b12--------10b11r(10)p|
F#|----------------------|-----------------------------|
C#|----------------------|-----------------------------|
G#|----------------------|-----------------------------|
D#|----------------------|-----------------------------|



    E E  E E Q    E E   Q    E E E  Q       E
D#|-------------------|--------------------10-|
A#|-8---10---8---10---|-8---10---8-10b12------|
F#|---9----9--------9-|--------9--------------|
C#|-------------------|-----------------------|
G#|-------------------|-----------------------|
D#|-------------------|-----------------------|



         ~        ~          ~
     E E Q    E E Q      E E Q    E E E  E   E  E  E  S  S  S S  E  E  E
D#|-------------------|--------------------|-----------------------------|
A#|-10---8---10---8---|-10---8---10---8-10-|-8h10-11-10h11p10p8----10----|
F#|----9--------9-----|----9--------9------|--------------------10----10-|
C#|-------------------|--------------------|-----------------------------|
G#|-------------------|--------------------|-----------------------------|
D#|-------------------|--------------------|-----------------------------|



                     |---3---|  |---3---|


    E   E  S  S  S  S  E  E    E  E  E    E
D#|------------------------------------------|
A#|-8-----10h11p10----10h11h==13-10h11h==13--|
F#|---/12----------12------------------------|
C#|------------------------------------------|
G#|------------------------------------------|
D#|------------------------------------------|



   |--3--|  |--3--|  |--3--|              |--3--|            |--3--|  |--3--|
     E  E  E  E  E  E  E  E  E   E  S  S    E  E  E   E  S  S  E  E  E  Q     E
D#|-10h12----10h12h13-15p12h13-/17-13h15-|-15h17----/18-15h17-15----15-------15-|
A#|-------13-----------------------------|-------18--------------18----18b20----|
F#|--------------------------------------|--------------------------------------|
C#|--------------------------------------|--------------------------------------|
G#|--------------------------------------|--------------------------------------|
D#|--------------------------------------|--------------------------------------|



                                                                                  ~~~
     S  S  S  S  S  S  S  S  S   S  S  S  S     +S   S  S   S  E.         +Q      Q   E E
D#|-------------------------------------------------------|-x-18b18.5====(18)r---------------|
A#|-18p15-18p15----15-18p15-----15----15------------------|---17b17.5====(17)r---17s=14------|
F#|-------------18----------18-----18----17b19r(17)p15----|----------------------------------|
C#|----------------------------------------------------17-|----------------------------------|
G#|-------------------------------------------------------|----------------------------------|
D#|-------------------------------------------------------|----------------------------------|



   |--3--|  |---3---|
     E  E  E  E  E    E  S  S  S  S  S  S  S  S
D#|---------------------12-13h15p13p12----13p12-|
A#|----------12h13h==15----------------15-------|
F#|-12h14h15------------------------------------|
C#|---------------------------------------------|
G#|---------------------------------------------|
D#|---------------------------------------------|


     S  S  S  S  S  S  S  S  S  S  S  S  S  S  S  S
D#|-------12------------------------------------------|
A#|-15-13----15p13-12-15-13p12----14p13p12----15p14p==|
F#|----------------------------15----------14---------|
C#|---------------------------------------------------|
G#|---------------------------------------------------|
D#|---------------------------------------------------|



     S  S  S  S  S  S  S  S  S  S  S S  S  S S  S
D#|-----------------------------------------------|
A#|-13p12-------12p10-------10--------------------|
F#|-------14p12-------12p10----12p10s9-12p10p9----|
C#|--------------------------------------------12-|
G#|-----------------------------------------------|
D#|-----------------------------------------------|



     S S  S  S S  S  S S  S  S     +S   S  S     +S   S  S
D#|--------------------------------------------------------|
A#|--------------------------------------------------------|
F#|-10p9-------9-------------------------------------------|
C#|------12-10---12p10-9-12-10b11r(10)----10b12r(10)----10-|
G#|------------------------------------13------------13----|
D#|--------------------------------------------------------|



       PM|        PM|     PM
                               |--3--|  |--3--|  |--3--|  |--3--|
     Q   S  S  E E  S  S  E E    E  E  E  E  E  E  E  E  E  E  E  E
D#|---------------------------|-------------------------------------|
A#|---------------------------|-------------------------------------|
F#|---------------------------|-------------------------------------|
C#|-10--------10---------10-0-|-------------------15h16h17-15h16h17-|
G#|---------------------------|-15h16h17-15h16h17-------------------|
D#|-----10-10------10-10------|-------------------------------------|



  |------------9|8-----------|  |-----------9|8----------|    |---3--|
    S  S  S  S  S   S  S    S  S  S  S  S  S  S  S  S   S  S    E  E   E  E  E     +Q     Q
D#|----------------------------------------------------------|-----------15--------------------|
A#|------------------------------15h16h17----------15h=16h17-|-16h17h=18----18b20=(18)r--------|
F#|-3h16h17-----------15h==16h17----------15h16h17-----------|---------------------------------|
C#|---------15h16h=17----------------------------------------|---------------------------------|
G#|----------------------------------------------------------|---------------------------15\---|
D#|----------------------------------------------------------|---------------------------------|



    PM-------------------------------------------------
    E S S E S S E S S E S S   E S S E S S E S S E S S
D#|-------------------------|-------------------------|
A#|-------------------------|-------------------------|
F#|-------------------------|-------------------------|
C#|-------------------------|-------------------------|
G#|-------------------------|-------------------------|
D#|-3-1-2-3-1-2-3-1-2-3-1-2-|-3-1-2-3-1-2-3-1-2-3-1-2-|



 ---------------------------------------------------------------|
  |-3-| |--3--| |--3--| |--3--|   |--3--| |--3--| |--3--| |--3--|
    E E E E E   E E E   E E E   E   E E   E E E   E E E   E E E   E
D#|-------------------------------|----------------------------------|
A#|-------------------------------|----------------------------------|
F#|-------------------------------|----------------------------------|
C#|-3-4-5-3-4---5-3-4---5-3-4---5-|-3-4---5-3-4---5-3-4---5-3-4---5--|
G#|-------------------------------|----------------------------------|
D#|-------------------------------|----------------------------------|



    PM--|   ~~~~~~~
    |-3-|
    E E E S E. +Q   Q       +H      E   +S  S Q
D#|-----------------------|----------------------|
A#|-----------------------|----------------------|
F#|-------3---------3b4===|=(3)r----5b6r(5)p3h5--|
C#|-3-4-5---5--(5)--------|----------------------|
G#|-----------------------|----------------------|
D#|-----------------------|----------------------|



    +H..             +E     E E E E Q  E.       +S
D#|-----------------------|---------------------------|
A#|-----------------------|---------------------------|
F#|-(5)b7============(5)r-|-5-3-5---3--3b3.5====(3)r--|
C#|-----------------------|-------5-------------------|
G#|-----------------------|---------------------------|
D#|-----------------------|---------------------------|


    ~
    W                Q       E  E  E  E  E     E
D#|---------------|------------12----------------|
A#|---------------|---------15----15-12----------|
F#|---------------|-14b16---------------14b16-14-|
C#|-5-------------|------------------------------|
G#|---------------|------------------------------|
D#|---------------|------------------------------|



                 ~~                       ~~~~~~~
     E  E  E  E  Q    E  E    S  S  E  E  E  +E   E  E  E
D#|------------------------|------------------------------|
A#|------------------------|------------------------------|
F#|-12----14----12---12-12-|-14p12----12-12-(12)-12-14-12-|
C#|----14----14------------|-------14---------------------|
G#|------------------------|------------------------------|
D#|------------------------|------------------------------|



     E      +E    E  E  E     +E   E  E    E  E  E  E  +E      E  E  E
D#|-------------------------------------|------------------------------|
A#|--------------12-15------------------|---------------------13-14-15-|
F#|-14b16==(14)r-------14b16r(14)-12----|-14----12-14-(14)b15----------|
C#|----------------------------------14-|----14------------------------|
G#|-------------------------------------|------------------------------|
D#|-------------------------------------|------------------------------|



     E     E  E  E     E   E  E     E    E  E     E  E  E     E  S  S  S     S
D#|-----------------------------------|------------------------------------------|
A#|-------13-15-------13--15-------13-|-15-------13-15-------13-15p13-------13---|
F#|-14b15-------14b15--------14b15----|----14b15-------14b15----------15b16------|
C#|-----------------------------------|------------------------------------------|
G#|-----------------------------------|------------------------------------------|
D#|-----------------------------------|------------------------------------------|



     S  S  S     S  S  S  S     S  S  S  S     S  S  S  S     S
D#|-------------------------------------------------------------|
A#|-15p13-------13-15p13-------13-15p13-------13-15-13-------13-|
F#|-------15b16----------15b16----------15b16----------15b16----|
C#|-------------------------------------------------------------|
G#|-------------------------------------------------------------|
D#|-------------------------------------------------------------|



     S  S  S     S  S  S  S     S  S  S  S     S  S  S  S     S
D#|-------------------------------------------------------------|
A#|-15p13-------13-15p13-------13-15p13-------13-15-13-------13-|
F#|-------15b16----------15b16----------15b16----------15b16----|
C#|-------------------------------------------------------------|
G#|-------------------------------------------------------------|
D#|-------------------------------------------------------------|



     S  S  S     S  S  S  S     S  S  S  S     S  S  S  S     S
D#|-------------------------------------------------------------|
A#|-15p13-------13-15p13-------13-15p13-------13-15-13-------13-|
F#|-------15b16----------15b16----------15b16----------15b16----|
C#|-------------------------------------------------------------|
G#|-------------------------------------------------------------|
D#|-------------------------------------------------------------|


     S  S  S     S  S  S  S     S  S  S  S     S  S  S  S     S
D#|-------------------------------------------------------------|
A#|-15p13-------13-15p13-------13-15p13-------13-15-13-------13-|
F#|-------15b16----------15b16----------15b16----------15b16----|
C#|-------------------------------------------------------------|
G#|-------------------------------------------------------------|
D#|-------------------------------------------------------------|


 Slower - Free Time
  F5                                  C5
   H                                   H
   |                                   |
   /                                   /

                              |--3--|            |--3---|  |-----5-----|
     E     T  T  T  T  S  T  T  S  S  S  S  S     +S   S  S  S  S  S  S  S
D#|----------------------------------------------------------------------------|
A#|-15b17-13h15p13s12-13-12h13p12-------12-------------------------------------|
F#|-------------------------------14p12----14b16r(14)p12----14p12--------------|
C#|------------------------------------------------------14-------12h14-12b14==|
G#|----------------------------------------------------------------------------|
D#|----------------------------------------------------------------------------|


  G5
    W
    |
    /

     +Q    +Q    +Q.   E
D#|------------------------|
A#|------------------------|
F#|------------------------|
C#|-(12)r=(12)--(12)---5b6-|
G#|------------------------|
D#|------------------------|


  G5
  +W
   |
   /

   |------6------| |------6------| |--------6--------| |-----5-----|
     S   +S  S S S S S   +S  S S S S S     S S     S S S S S S   +S  S
D#|--------------------------------------------------------------------|
A#|--------------------------------------------------------------------|
F#|--5b6r(5)p3-5p3---5b6r(5)p3---5---3b3.5---3b3.5---------------------|
C#|----------------5-----------5---5-------5-------5-3-----------------|
G#|----------------------------------------------------5-4-3-3b4r(3)-1-|
D#|--------------------------------------------------------------------|


                                                        G5
  W                        W               W            Q   Q  H
                                                        |
                                                        /

           ~~~~~~~~~~~
    S S S  S +Q   +Q.   E   +W              +W            Q   Q  H
D#|-----------------------|---------------|-------------|-------------*|
A#|-----------------------|---------------|-------------|-------------*|
F#|---------------------3-|-(3)b4=========|=(3)r--------|-------------*|
C#|-------/5-(5)--(5)-----|---------------|-------------|-5\----------*|
G#|-3-2-1-----------------|---------------|-------------|-5\----------*|
D#|-----------------------|---------------|-------------|-3\----------*|


  Riff 1
    ~     ~                 ~~~~~~~~~~~~~~~~    ~                    ~~~~~~~
    E S S E   S S S S S S S E.            E S S E   S S S S S S S   +E.
D#|-------------------------------------|----------------------------------------|
A#|-------------------------3-----------|-----------------------3b5r(3)----------|
F#|-4-2-3-4---2-3-4-2-4-2-4-------------|-4-2-3-4---2-3-4-2-4-2------------------|
C#|-------------------------------------|----------------------------------------|
G#|-------------------------------------|----------------------------------------|
D#|-------------------------------------|----------------------------------------|


    ~     ~                 ~~~~~~~~~~~~~~~~
    E S S E   S S S S S S S E.            E S S E    E
D#|-------------------------------------|--------------|
A#|-------------------------3-----------|--------------|
F#|-4-2-3-4---2-3-4-2-4-2-4-------------|-4-2-3-4----2-|
C#|-------------------------------------|--------------|
G#|-------------------------------------|--------------|
D#|-------------------------------------|--------------|

    Q      Q          Q      Q
D#|--------------------------0--|
A#|-------------------1---------|
F#|--------0--------------------|
C#|-2---------------------------|
G#|-----------------------------|
D#|-----------------------------|

    S    +S  +S  S S    S  S S +Q     Q
D#|--------------------------------------------||
A#|-5b6==(5)r(5)-3-5----3----------------------||
F#|------------------------3-4-(4)\------------||
C#|--------------------------------------------||
G#|--------------------------------------------||
D#|--------------------------------------------||

*******************************************************
| h     hammer-on
|(n)    ghost note
| b     bend
| r     release
| p     pull-off
| /     slide up
| \     slide down
*******************************************************
comments
print report bad tab
90 comments total. Showing first comments.
+1 reply
Voodoo311Chile wrote on March 3 2004, 12:00 am

perfect
nuff said

+1 reply
LG87 wrote on June 26 2004, 12:00 am

good tab
but what does == that mean?

+2 reply
troutBoy wrote on August 9 2004, 12:00 am

hold the bend/note til u need 2 do sumthin else

I want to post or [tab]
guest
You may want to rate the tab now too:
select rating
Please do not post tabs as comments. Select "correction" instead!