Oops, an error
Loading. Please wait.

Patience Tab

version 3
version 3
214 views 15 this week
no commentswrite comment
1 2 3 4 5
2 more votes to show rating
add to favorites
launch autoscroll
font size
0
reset
how to read this tab
guitar tuner
Autoscroll
slow
fast
+/-
esc
set tempo
stop
Help us to improve Ultimate-Guitar.com Take our survey!
×
Difficulty
Tuning
intermediate
D# G# C# F# A# D#
[Intro Solo] 

Tune you guitar 1/2 step down.
D#|---------------------10-------------------------7--8--9--10----------------|
A#|------8~--8---10/12------12\10--8--10--8~--10b-----------------------------|
F#|---7-----------------------------------------------------------------------|
C#|---------------------------------------------------------------------------|
G#|---------------------------------------------------------------------------|
D#|---------------------------------------------------------------------------|

D#|-----------------------7/8/9-------10-----8-----7-- 7\5--------------------|
A#|---10b--8~--10-----10------------------------------------------------------|
F#|----------------9------7/8/9---11------9-----7------7\5--------------------|
C#|---------------------------------------------------------------------------|
G#|---------------------------------------------------------------------------|
D#|---------------------------------------------------------------------------|


************************************

| b  Bend
| /  Slide up
| \  Slide down
| ~  Vibrato

************************************
Suggest correction
Give kudos to tab author, rate the tab!
1 2 3 4 5
comments
print report bad tab
guest
You may want to rate the tab now too:
select rating
Wanna post a correction for this tab? Suggest correction