Oops, an error
Loading. Please wait.
30,929 views 12 this week
5 commentsread comments
1 2 3 4 5
x 5
add to favorites
×
Save as Personal and add changes to this tab that will be seen only by you. Learn more ›
×
You can save this tab as Personal to edit and correct it or add notes. All changes will be seen only by you. Learn more »
launch autoscroll
font size
0
reset
how to read this tab
guitar tuner
backing track
0:00
0:00
edit
Autoscroll
slow
fast
+/-
esc
set tempo
stop
Author
Unregistered
[Intro]
C G A D    C G A D
C G C Em   C G D D

C
Shed a tear cause I'm missing you
    G
I'm still allright to smile
A                            D
Girl I think about you every day now

C
Was a time when I wasn't sure
        G
But you set my mind at ease
A                               D
There is no doubt, you're in my heart now

C          G
Sad woman take it slow
        C               Em
It will work itself out fine
C              G               D
All we need is just a little patience

C          G
Sad sugar make it slow and
   C              Em
It comes together fine
C              G               D
All we need is just a little patience

I Sit here on the stairs
Cause I'd rather be alone
If I can't have you right now
I'll wait dear

Sometimes I get so tense
But I can't speed up the time
You know love, there's one more thing
To consider


Sad woman take it slow
And things will be just fine
You and I just use a little patience

Sad sugar take the time
Cause the lights are shining bright
You and I got what it takes to make it

D
We don't fake it
D
Ahh and never break it
D
Cause I can't take it


D        G
A little patience
D     G
Mhh Yeah

D
I've been walking the streets tonight
G
Just trying to get it right
D
It's hard to see with so many around
G
No one  like to be stuck in the ground
                 D
And the streets don't change but maybe the name
            G
I ain't got time for the game
        D
Cause I need you
          G
Yeah Yeah cause I need you
      D
Uh I need you
      G
Woh I need you
       D
Uhh this time

e|--x-------------|
B|--x-------------|
G|--x-------------|
D|--x-------------|
A|--x-------------|
E|--x-------------|
p=pull off
()=its origin is HARMONICS, but here the strings that can be palyed or not
   {sound better if played}

[Intro]
   C            G          A         D
e|E-0-0-0-0-0-0--3----------0---------2-------------------------------|
B|-1-1-3p1-0-1--3--3p1-0-1-2-3p1-0-1-3-3p1-0-1------------------------|
G|-0-0-0p0-0-0--0----------2---------2--------------------------------|
D|-2------------0----------2---------0--------------------------------|
A|-3------------2----------0---------0--------------------------------|
E|(0)-----------3---------(0)-------(0)-------------------------------|

p=pull off
b=bend
~=half bend


[Main lead]
e|-----------10b-------8-7-8-7-10----------------------------|
B|-----8b-10b---10b-8p-----------10b-8b-10-10-10s8-----------|
G|--7h9-----------------------------------9--------7s9-------|
D|-----------------------------------------------------------|
A|-----------------------------------------------------------|
E|-----------------------------------------------------------|

e|---8------|---6------------4----------3-------|
B|----------|-----------------------------------|
G|-9--------|-7----------5----------4------4b~--|
D|----------|-----------------------------------|
A|----------|-----------------------------------|
E|----------|-----------------------------------|

(pluggin part:
)
      Shed a tear...
e|----------------|----------------|----------------|----------------|
B|------1---1-1-1-|3p1---0---1-----|----------------|----------------|
G|----0-----0-0-0-|0-----------0---|----------------|--------0-----0-|
D|--2-------2-2-2-|2---------------|----------------|----0-----0-2-0-|
A|3---------3-3-3-|3---3---------3-|2-------2-0-----|----2-0---------|
E|----------------|----------------|----------------|3---------------|

e|----------------|----------------|----------------|----------------|
B|------1---------|3-1---1---------|----------------|----------------|
G|----0-----------|----0---0-------|------0---------|------0---------|
D|--2-------------|----------2-----|----0-----------|----0---0-----0-|
A|3---------------|------------3-0-|2---------0-----|--2-------2-----|
E|----------------|----------------|--------------3-|3-----------3---|

e|--------5-------|----------------|----------------|----------------|
B|------2---------|3p2---0---2-----|----------------|----------------|
G|----2-----------|----------------|----------------|--2---2-4-2-----|
D|2---------------|----2-----------|0-------------0s|4-----------4---|
A|0---------------|----------0-3-4-|----------------|--------------0-|
E|----------------|----------------|----------------|----------------|

e|------5---------|5-----5---------|------0-2-------|3-2-----0-2-----|
B|----5---5-------|5-------5-------|----3-----------|----------------|
G|--6-------------|7---------------|----------------|----------------|
D|7-----------7---|----------------|0-------------0-|----------------|
A|----------------|----------0-3-4-|----------------|----------------|
E|----------------|----------------|----------------|----------------|

      Was a time...
e|----------------|----------------|----------------|----------------|
B|------1---1-1-1-|3p1---0---1-----|----------------|----------------|
G|----0-----0-0-0-|0-----------0---|----------------|--------0-----0-|
D|--2-------2-2-2-|2---------------|----------------|----0-----0-2-0-|
A|3---------3-3-3-|3---3---------3-|2-------2-0-----|----2-0---------|
E|----------------|----------------|----------------|3---------------|

e|----------------|----------------|----------------|----------------|
B|------1---------|3-1---1---------|----------------|----------------|
G|----0-----------|----0---0-------|------0---------|------0---------|
D|--2-------------|----------2-----|----0-----------|----0---0-----0-|
A|3---------------|------------3-0-|2---------0-----|--2-------2-----|
E|----------------|----------------|--------------3-|3-----------3---|

e|--------5-------|----------------|------0-2-------|3-2---0-0-2-----|
B|------2---------|3p2---0---2-----|----3-----3-----|------3-3-3---0-|
G|----2-----------|----------------|------------2---|--------2-2-2---|
D|2---------------|----2-----------|0-------------0-|----------------|
A|0---------------|----------0-3-4-|----------------|----------------|
E|----------------|----------------|----------------|----------------|

e|------5---------|5-----5---------|----2---2-------|----------------|
B|----5---5-------|5-------5-------|------3---3-----|3-----3---3-3-0-|
G|--6-------------|7---------------|------------2-0-|----------2-2-0-|
D|7-----------7---|----------------|0---------------|----------0-0-0-|
A|----------------|----------0-3-4-|----------------|----------------|
E|----------------|----------------|----------------|----------------|

[Verse 2] (same as above)
except

  A                                             DSUS4
e|0----0--0--0-------------------------------------3--3-0--2----|
B|2-2---2--2--2----------------------------2--2-----3----3------|
G|2--2---2--2-------------------------------2--2-----2----------|
D|2---2----------------------------------2----2--20-------------|
A|0-------------------------------------------------------------|
E|0-------------------------------------------------------------|

[Solo]
e|-----------------8--7-|-8--------8/--10--8-------|------------------8--7--|
B|----------------------|-------------------10/-12-|---10-8----8------------|
G|----------------------|--------------------------|------------------------|
D|----------------------|--------------------------|------------------------|
A|----------------------|--------------------------|------------------------|
E|----------------------|--------------------------|------------------------|

e|-8-------8/-10b-10/-12b|------------------8--7---|-8--------8/-10--8-------|
B|-----------------------|-------------------------|------------------10/-12-|
G|-----------------------|-------------------------|-------------------------|
D|-----------------------|-------------------------|-------------------------|
A|-----------------------|-------------------------|-------------------------|
E|-----------------------|-------------------------|-------------------------|

e|----------------10/-12-|-----10---10------12/-14-|----12----10------10-----|
B|---10---8--8--8--------|-------------------------|-------------------------|
G|-----------------------|-------------------------|-------------------------|
D|-----------------------|-------------------------|-------------------------|
A|-----------------------|-------------------------|-------------------------|
E|-----------------------|-------------------------|-------------------------|

e|------------------------|------------------------|-------------------------|
B|-------5--8-------------|------------------------|---------5--8------------|
G|---7-----------7---5--7-|-----4---7--------------|---7b---------7--9-------|
D|------------------------|--7b-------7~-----5-7b--|-------------------------|
A|------------------------|------------------------|-------------------------|
E|------------------------|------------------------|-------------------------|

e|----------------------|--------------------------|-----------------------------|
B|-8h10-10~r8------8-10-|10b-10b-10b-8b-10b-8--10--|-8h-10r-8h-10r-8~-10/12-10-10|
G|------------9---------|--------------------------|-----------------------------|
D|----------------------|--------------------------|-----------------------------|
A|----------------------|--------------------------|-----------------------------|
E|----------------------|--------------------------|-----------------------------|

[Outro]
e|-------10-14---14-14b/12b-12-12/10-10b-8-7-6-5-4-3b-3-3-3-3-3-3-3--(2)------------|
B|(1)/11-10-15---14-14b/12b-12-12/10-10b-----------------------------(3)------------|
G|-------11-14---14-14b/12b-12-12/10-10b-9-8-7-6-5-4b-4-4-4-4-4-4-4-----------------|
D|----------------------------------------------------------------------------------|
A|----------------------------------------------------------------------------------|
E|----------------------------------------------------------------------------------|
                                             Little patience uh huh ya

e|-----------------------------------------|
B|----------10-----------------------------|
G|(12)12~-12--12--9------------------------|
D|--------------12-12----------------------|
A|-----------------------------------------|
E|-----------------------------------------|
uh huh ya            need a little patience

e|--------------------------------------------------------|
B|----------10--------------------------------------------|
G|-9-11-12----12-11-12-12~12br11-11-11r9-9/7b-7/5b-5/4-4~-|
D|--------------------------------------------------------|
A|--------------------------------------------------------|
E|--------------------------------------------------------|
  ya......................ya..                 Just a little patience

e|--------------------------------------10b--|
B|---------10----------------10r8-10/12------|
G|-9-11-12----12-11-12~~---------------------|
D|-------------------------------------------|
A|-------------------------------------------|
E|-------------------------------------------|
ya..................       C'mon patience

after this the main vocal starts:

e|-------------------------------------------|
B|-8h10-8b7-8-8~8--8r7-7-7b-7/5b-5/3b-3/2-2b-|
G|-------------------------------------------|
D|-------------------------------------------|
A|-------------------------------------------|
E|-------------------------------------------|


e|--5-5-5-5-5-5~5b--5h75bh7b5--------------|
B|-3-3-3-3-3-3-----------------------------|
G|-----------------------------------------|
D|-----------------------------------------|
A|-----------------------------------------|
E|-----------------------------------------|

And the streets don't change but maybe the name


e|-----8--8---8--6---6---6---6---6~--4-4-4-4-4--3~--3b---|
B|-------------------------------------------------------|
G|--9---9---9--7--7---7---7---7-----5-5-5-5-5--4--4b-----|
D|-------------------------------------------------------|
A|-------------------------------------------------------|
E|-------------------------------------------------------|

Cause I need youYeah Yeah cause I need you Uh I need you Woh I need you

Uhh this time

e|-3~2---------2--|
B|----3--------3--|
G|-----2-------2--|
D|------5-4-0--0--|
A|-------------0--|
E|-------------0--|



************************************

| x    Dead note
| p    Pull-off
| (n)  Ghost note
| b    Bend
| h    Hammer-on
| /    Slide up
| ~    Vibrato
| r    Release
| br   Bend release
| (    
| )/   
| E    
| b/   
| bh   
| b~   
| s    
| ~r   

************************************

            
            
Suggest correction
Creating personal tab
Creating personal tab
You can edit any tab online and save it as your Personal.

You can edit, replace or remove any tab part or add personal notes – all changes will be seen only by you.

Personal tabs can be accessed anytime from any device, even offline.
Learn more »
comments
print report bad tab
5 comments total. Showing first comments.
0 reply
Snakepit5490 10 May 16, 2004 08:00 PM

better than most

0 reply
guitar355 10 Feb 18, 2006 12:05 PM

I just played the solo you tabbed. Uh, No.

0 reply
Les_Paul_789 10 Nov 06, 2006 11:37 AM

Doesn't sound much like the real thing. You sure thats right?

guest
Wanna post a correction for this tab? Suggest correction