Oops, an error
Loading. Please wait.
69,158 views 33 this week
3 commentsread comments
1 2 3 4 5
x 10
add to favorites
×
Save as Personal and add changes to this tab that will be seen only by you. Learn more ›
×
You can save this tab as Personal to edit and correct it or add notes. All changes will be seen only by you. Learn more »
launch autoscroll
font size
0
reset
how to read this tab
guitar tuner
backing track
0:00
0:00
edit
Autoscroll
slow
fast
+/-
esc
set tempo
stop
[Intro]

    Gtr I
   
D#|-------0-(0)-0-----|------------------|
A#|-------1-(1)-1-1-1-|--3p1-1-0h1-1-1p0-|
F#|-----0---------0-0-|--0---0-0---0-0---|
C#|-2-2-----------2-2-|--2---2-2---2-2---|
G#|-3-------------3-3-|--3---3-3---3-3---|
D#|-------------------|------------------|
  |
  | Gtr IV
  | W                    H       Q   E E
D#|-------------------|----------------3-|
A#|-------------------|------------------|
F#|-------------------|------------------|
C#|-------------------|------------------|
G#|-------------------|------------------|
D#|-------------------|------------------|

D#|----------------------|----------------------|
A#|----------0-(0)-------|--1p=0----------------|
F#|--------0-------0-----|-------0-2p0------0h2-|
C#|------0-----------0---|---------------0--0h2-|
G#|---2----------------2-|----------------------|
D#|----------------------|----------------------|
  |
  |  
D#|-3h7--------------5-3-|-(3)-------5-5h7------|
A#|----------------------|----------------------|
F#|----------------------|----------------------|
C#|----------------------|----------------------|
G#|----------------------|----------------------|
D#|----------------------|----------------------|


D#|------------------|------------------|
A#|----2-----------0-|--3p2---0h2-2-----|
F#|------2-----2-----|------2-0h2-2-2-0-|
C#|---------2----2---|------2-------2-0-|
G#|-0----------------|------------------|
D#|------------------|------------------|
  |
  |  
D#|-5--3-0-(0)-------|----------7p5-3-5-|
A#|------------------|------------------|
F#|------------------|------------------|
C#|------------------|------------------|
G#|------------------|------------------|
D#|------------------|------------------|
  |
  | Gtr II
  |  
D#|------------------|------------------|
A#|------------------|------------------|
F#|------------------|------------------|
C#|------------------|------------------|
G#|------------------|------------------|
D#|------------------|------------------|


  D
  
D#|--2----2---2-2-------|--3p2-2-0-(0)-2-----|
A#|--3--3---3-------3-3-|--3---3-3-(3)-3-----|
F#|--2----------------2-|--2---2-2-(2)-2-----|
C#|--0----------------0-|--0---0-0-(0)-0-----|
G#|---------------------|----------------0-2-|
D#|---------------------|--------------------|
  |
  | 
D#|-(5)-----------0h2---|--0-----------------|
A#|---------------------|------3-------------|
F#|---------------------|--------------------|
C#|---------------------|--------------------|
G#|---------------------|--------------------|
D#|---------------------|--------------------|
  |
  |   
D#|---------------------|--------------------|
A#|---------------------|--------------------|
F#|---------------------|----------------7---|
C#|---------------------|--------------------|
G#|---------------------|--------------------|
D#|---------------------|--------------------|


[Solo]

  C
 
D#|-------------------|---------10-------------------|
A#|-8-------(8)-----8-|---10s12----12s10-(10)-8-10-8-|
F#|-------------------|------------------------------|
C#|-------------------|------------------------------|
G#|-------------------|------------------------------|
D#|-------------------|------------------------------|
  |
  | Gtr I
  |  
D#|-------0-(0)-0-----|------------------------------|
A#|-------1-(1)-1-1-1-|----3p=1--1-----0h==1--1--1p0-|
F#|-----0---------0-0-|----0-----0-----0------0--0---|
C#|-2-2-----------2-2-|----2-----2-----2------2--2---|
G#|-3-------------3-3-|----3-----3-----3------3--3---|
D#|-------------------|------------------------------|
  |
  | Gtr IV
  | 
D#|-----3----3--5-----|-5h=7----10--5h=7--(7)-5--3---|
A#|-------------------|------------------------------|
F#|-------------------|------------------------------|
C#|-------------------|------------------------------|
G#|-------------------|------------------------------|
D#|-------------------|------------------------------|


  G
 
D#|-------7-8-9-10------------|----------------------|
A#|-10b12-----------10b12---8-|-(8)-----------10-----|
F#|---------------------------|------------------9---|
C#|---------------------------|----------------------|
G#|---------------------------|----------------------|
D#|---------------------------|----------------------|
  |
  |  
D#|---------------------------|----------------------|
A#|-----------0-(0)-----------|--1p=0----------------|
F#|---------0--------0--------|-------0-2p0----0h2---|
C#|-------0---------------0---|-------------0--0h2---|
G#|--2----------------------2-|----------------------|
D#|---------------------------|----------------------|
  |
  |  
D#|---------7-5--7--------5-3-|-(3)------------------|
A#|---------------------------|----------------------|
F#|---------------------------|----------------------|
C#|---------------------------|----------------------|
G#|---------------------------|----------------------|
D#|---------------------------|----------------------|


  A
 
D#|--------------7s==8s|==9--------------------|
A#|-10-----------------|-----------------------|
F#|--------------7s==8s|==9--------------------|
C#|--------------------|-----------------------|
G#|--------------------|-----------------------|
D#|--------------------|-----------------------|
  |
  |   
D#|--------------------|-----------------------|
A#|------2-----------0-|--3p=2---0h=2--2-------|
F#|--------2---2-------|-------2-0h=2--2---2-0-|
C#|----------2---2-----|-------2-----------2-0-|
G#|--0-----------------|-----------------------|
D#|--------------------|-----------------------|
  |
  |   
D#|------5-3-5p3-0-3h5-|-(5)-3-0-5-(5)---5h7---|
A#|--------------------|-----------------------|
F#|--------------------|-----------------------|
C#|--------------------|-----------------------|
G#|--------------------|-----------------------|
D#|--------------------|-----------------------|


  D
 
D#|-----10-----8-----7-|--------7s=5-(5)---------|
A#|--------------------|--8----------------------|
F#|-11-------9-----7---|-----7-(7)s5-(5)---------|
C#|--------------------|-------------------------|
G#|--------------------|-------------------------|
D#|--------------------|-------------------------|
  |
  |  
D#|--2-----2---2-2-----|--3p=2--2--0-(0)-2-------|
A#|--3---3---3-----3-3-|--3-----3--3-(3)-3-------|
F#|--2---------------2-|--2-----2--2-(2)-2-------|
C#|--0---------------0-|--0-----0--0-(0)-0-------|
G#|--------------------|-------------------0-2---|
D#|--------------------|-------------------------|
  |
  |  
D#|--2-------------2-0-|-(0)---------------------|
A#|--------------------|-------------------------|
F#|--------------------|-------------------------|
C#|--------------------|-------------------------|
G#|--------------------|-------------------------|
D#|--------------------|-------------------------|


  C               G6/DG
 
D#|-------0-----------|--------------------|
A#|-----1---3p1-------|--------------------|
F#|---0-------------0-|--------0-(0)-------|
C#|-2-----------2-----|------0-------0-----|
G#|-3-----------------|---2------------2---|
D#|-------------------|-3----------------3-|
  |
  | Gtr IV
  | 
D#|-------3-5-3---6h7p|=5-3------(3)-------|
A#|-------------------|--------------------|
F#|-------------------|--------------------|
C#|-------------------|--------------------|
G#|-------------------|--------------------|
D#|-------------------|--------------------|


  C                 Em
 
D#|-----------------|--------------------|
A#|-------1---------|---------0-(0)------|
F#|-----0---0-------|--------------------|
C#|---2-------2-----|-------2------------|
G#|-3---------------|-----2--------------|
D#|-------------3-2-|--0-----------------|
  |
  |  
D#|-----8-7-5---3-0-|-(0)---3-3h=5p3-0---|
A#|-----------------|--------------------|
F#|-----------------|--------------------|
C#|-----------------|--------------------|
G#|-----------------|--------------------|
D#|-----------------|--------------------|


  C             G6/DG               G6/D  D
 
D#|-----------------|---------------------|------2-(2)----|---(2)-----------||
A#|-------1---------|-----------0---------|-3-------------|-----------------||
F#|-----0---0-------|---------0---0-------|-2-------------|-----------------||
C#|---2-------2-----|-------0-------0-----|-0-------------|-----------------||
G#|-3-----------3-2-|--2--2---------------|---------------|-----------------||
D#|-----------------|--3------------------|---------------|-----------------||
  |
  |                                                            ~~~
  | 
D#|---------0-3---0-|-(0)-----------3-----|-2-------3-----|-3h=5------------||
A#|-----1-----------|-------3-------------|---------------|-----------------||
F#|-----------------|-----------0---------|---------------|-----------------||
C#|-----------------|---------------------|---------------|-----------------||
G#|-----------------|---------------------|---------------|-----------------||
D#|-----------------|---------------------|---------------|-----------------||


[Verse]

      C
      Gtr I
 
D#||--------------------|-------------------|
A#||o-------1-(1)-1-1-1-|-3p1---0-(0)-1-----|
F#||------0-------0-0-0-|-0-------------0---|
C#||----2---------2-2-2-|-2-----------------|
G#||o-3-----------3-3-3-|-3---3-----------3-|
D#||--------------------|-------------------|
  |
  |   Gtr III
  |   
D#||--------------------|-------------------|
A#||o-------1-(1)-------|-3-1---1-----------|
F#||------0-------------|-----0----0--------|
C#||----2---------------|-------------2-----|
G#||o-3-----------------|---------------3-0-|
D#||--------------------|-------------------|


    G
 
D#|------------------|------------------|
A#|------------------|------------------|
F#|------------------|---------0-----0--|
C#|------------------|-----0-----0-2-0--|
G#|-2-------2--0-----|-----2-0----------|
D#|------------------|-3----------------|
  |
  | 
D#|------------------|------------------|
A#|------------------|------------------|
F#|------0-(0)-------|-------0----------|
C#|----0-------------|-----0---0-----0--|
G#|-2----------0-----|---2-------2------|
D#|----------------3-|-3-----------3----|


    A                                     D
  
D#|---------5-----|---------------------|-----------------|--------------------|
A#|-------2-------|---3p2---0-(0)-2-----|-----------------|--------------------|
F#|-----2---------|---------------------|-----------------|----2----2-4-2------|
C#|-2-------------|-------2-------------|-0-------------0-|-/4-------------4---|
G#|-0-------------|---------------0-3-4-|-----------------|------------------0-|
D#|---------------|---------------------|-----------------|--------------------|
  |
  |  
D#|-------5-------|---5-----5-----------|--------0-2------|--3-2------0-2------|
A#|-----5---5-----|---5--------5--------|------3----------|--------------------|
F#|---6-----------|-6h7-----------------|-----------------|--------------------|
C#|-7----------7--|---------------------|-0-------------0-|--------------------|
G#|---------------|---------------0-3-4-|-----------------|--------------------|
D#|---------------|---------------------|-----------------|--------------------|


    C                                       G
    
D#|-------------------|-------------------|------------------|-----------------|
A#|-------1-(1)-1-1-1-|-3p1---0-(0)-1-----|------------------|-----------------|
F#|-----0-------0-0-0-|-0-------------0---|------------------|---------0-----0-|
C#|---2---------2-2-2-|-2-----------------|------------------|-----0-----0-2-0-|
G#|-3-----------3-3-3-|-3---3-----------3-|-2-------2--0-----|-----2-0---------|
D#|-------------------|-------------------|------------------|-3---------------|
  |
  |  
D#|-------------------|-------------------|------------------|-----------------|
A#|-------1-(1)-------|-3-1---1-----------|------------------|-----------------|
F#|-----0-------------|-----0----0--------|------0-(0)-------|-------0---------|
C#|---2---------------|-------------2-----|----0-------------|-----0---0-----0-|
G#|-3-----------------|---------------3-0-|-2----------0-----|---2-------2-----|
D#|-------------------|-------------------|----------------3-|-3-----------3---|


    A                                     D
     
D#|---------5-----|---------------------|------0-2-------|-3--2--0--0--2-----||
A#|-------2-------|---3p2---0-(0)-2-----|----3-----3-----|-------3--3--3---0-||
F#|-----2---------|---------------------|------------2---|----------2--2-2---||
C#|-2-------------|-------2-------------|-0------------0-|-------------------||
G#|-0-------------|---------------0-3-4-|----------------|-------------------||
D#|---------------|---------------------|----------------|-------------------||
  |
  | 
D#|-------5-------|---5-----5-----------|----2---2-------|-------------------||
A#|-----5---5-----|---5--------5--------|------3---3-----|-3-----3-(3)-3-3-0-||
F#|---6-----------|-6h7-----------------|------------2-0-|-------------2-2-0-||
C#|-7----------7--|---------------------|-0--------------|-------------0-0-0-||
G#|---------------|---------------0-3-4-|----------------|-------------------||
D#|---------------|---------------------|----------------|-------------------||


[Chorus]

  Cadd9       G6/DG             G6/DC            G6/DEm            G6/D
  Gtr III
 

    Gtr I
     
D#|---------------|---------3-------|----------------|-------0---------|
A#|-1-----1-------|-3-3-0-3---3---0-|----1-----------|-----0---0-------|
F#|-0-----0-------|-0-----------0---|-0--0-----------|-----------0---0-|
C#|-2-----2-------|-0---------------|-2--2-----------|---2---------2---|
G#|-3-----3-------|-2---------------|-3--3-----------|-----------------|
D#|---------------|-3---------------|------------3-2-|-0---------------|


  C               G6/DG                  D     D5  DsDs2DsusD5D D5DsD5D   G6/D
 
 
D#|-------0-(0)-------|------------------|-^2--2-----0-2--3-|---2---0---2-----|
A#|-------1-(1)-1-1-0-|----------------0-|-^3--3-(3)-3-3--3-|-3-3-3-3-3-3-3-0-|
F#|---0---0-(0)-0-0-0-|-0----0-(0)-----0-|-^2--2-(2)-2-2--2-|-2-2-2-2-2-2-2-0-|
C#|-2---2-------2-2-0-|-0--0-------0---0-|-^0--0-(0)-0-0--0-|-0-0-0-0-0-0-0-0-|
G#|-3---3-------3-3---|-2------------2---|------------------|-----------------|
D#|-------------------|-3----------------|------------------|-----------------|


  Cadd9       G6/DG             G6/DC            G6/DEm            G6/D

D#|---------------|---------3-------|----------------|-------0---------|
A#|-1-----1-------|-3-3-0-3---3---0-|----1-----------|-----0---0-------|
F#|-0-----0-------|-0-----------0---|-0--0-----------|-----------0---0-|
C#|-2-----2-------|-0---------------|-2--2-----------|---2---------2---|
G#|-3-----3-------|-2---------------|-3--3-----------|-----------------|
D#|---------------|-3---------------|------------3-2-|-0---------------|


  C               G6/DG
 
D#|-------0-(0)-------|------------------|
A#|-------1-(1)-1-1-0-|----------------0-|
F#|---0---0-(0)-0-0-0-|-0----0-(0)-----0-|
C#|-2---2-------2-2-0-|-0--0-------0---0-|
G#|-3---3-------3-3---|-2------------2---|
D#|-------------------|-3----------------|


  D     D5DsDsD5DsusD5   D D5DsD5D D5D
 
D#|-^2--------------|-(2)--------------2-2-|
A#|-^3--------------|-(3)--------------3-3-|
F#|-^2--------------|-(2)--------------2-2-|
C#|-^0--------------|-(0)--------------0-0-|
G#|-----------------|----------------------|
D#|-----------------|----------------------|


  D    D5DsDsD5DsusD5  D D5DsD5D D5D
 
D#|-2--------------|-(2)-----------------|
A#|-3--------------|-(3)-------------5s==|
F#|-2--------------|-(2)-------------6s==|
C#|-0--------------|-(0)-------------7s==|
G#|----------------|---------------------|
D#|----------------|---------------------|


          D5DsDsD5DsusD5   D D5DsD5D D5D
 
D#|-----10------------|-(10)-------------------|
A#|-10----------------|------------------------|
F#|-11----------------|------------------7s====|
C#|-12----------------|------------------------|
G#|-------------------|------------------------|
D#|-------------------|------------------------|


                         1.
         D5Dsus2D  D5Dsus4D5   D  D5 DsuD5 D
 
D#|-----14---(14)------14-|-(14)----14----14----14\----||
A#|-----------------------|------14----14----14-------o||
F#|-14------------14------|----------------------------||
C#|-----------------------|----------------------------||
G#|-----------------------|---------------------------o||
D#|-----------------------|----------------------------||


[Solo]

  2.
 
D#|-------------8p7---||-8-----8s10-8-------|
A#|-------------------||--------------10s12-|
F#|-------------------||--------------------|
C#|-------------------||--------------------|
G#|-------------------||--------------------|
D#|-------------------||--------------------|


  G                G6/DC                   G6/D
 
D#|----------------8p7-|-8------8s10------10s12--|
A#|-(12)--(8)--8-------|-------------(12)--------|
F#|--------------------|-------------------------|
C#|--------------------|-------------------------|
G#|--------------------|-------------------------|
D#|--------------------|-------------------------|


  Em             G6/DC               G6/D
 
D#|-(12)---------8-7-|-8-----8s10-8-------|
A#|------------------|--------------10s12-|
F#|------------------|--------------------|
C#|------------------|--------------------|
G#|------------------|--------------------|
D#|------------------|--------------------|


  G                        D          D5Dsus2D     Dsus4
 
D#|------------------10s12-|-(12)-10-10---(10)----12s14--|
A#|-(12)-10-8--8---8-------|-----------------------------|
F#|------------------------|-----------------------------|
C#|------------------------|-----------------------------|
G#|------------------------|-----------------------------|
D#|------------------------|-----------------------------|


  D5   D  D5 Dsus2D5 D   G6/DCadd9                G6/DG
 
D#|-(14)-12-10h(12)-10-------|------------------------|
A#|--------------------------|----------5-8-----------|
F#|--------------------------|-7b9==(7)-----7r(7)-5-7-|
C#|--------------------------|------------------------|
G#|--------------------------|------------------------|
D#|--------------------------|------------------------|


                        G6/DC                    G6/D
 
D#|-------------------------|-------------------------|
A#|-------------------------|----------5-8------------|
F#|---------4-7-------------|-7b9==(7)-----7r(7)-5-7s=|
C#|-7b9-(7)-----7b8r(7)-5---|-------------------------|
G#|-------------------------|-------------------------|
D#|-------------------------|-------------------------|


  Em                     G6/D C                            G6/D
 
D#|---------------------------|------------------------------------|
A#|---8-10b12r(10)p8-----8-10-|-10b12==(10)-10r(10)-8-10---8-10b12-|
F#|-9----------------9--------|--------------------------9---------|
C#|---------------------------|------------------------------------|
G#|---------------------------|------------------------------------|
D#|---------------------------|------------------------------------|


  G                          D           D5DsDs2Dsus4
 
D#|--------------------------|-----------------------|
A#|-(10)-8-10---8-10-8-10s12-|-(12)-10-10------------|
F#|-----------9--------------|-----------------------|
C#|--------------------------|-----------------------|
G#|--------------------------|-----------------------|
D#|--------------------------|-----------------------|


  D5   D5D DsD5D D5D          D5DsDs2 DsusD5D
 
D#|--------------------|------------------|
A#|-(10)---------------|-3s5--3-----------|
F#|--------------------|--------------4p2-|
C#|--------------------|------------------|
G#|--------------------|------------------|
D#|--------------------|------------------|


      D5DsD52 D D5D              D5DsDs2Dsus4
 
D#|----------------------|------------------|
A#|-----------------7b8==|=(7)r=7-----------|
F#|-----2----------------|------------------|
C#|-3-4---0-(0)----------|------------------|
G#|----------------------|------------------|
D#|----------------------|------------------|


                 
  D5D D5DsusD5 D D5D      D        D5DsDsD5Dsus4   D  Dsus2  D
 
D#|-----------------------|--------------------|---------------------||
A#|------------------7b8==|=(7)r7------5-7---3-|-(3)-----------^3----||
F#|-4p2-----2s5-----------|--------------------|-----2--^0-(0)-^2----||
C#|-----3h4---0-----------|--------------------|--------^0-(0)-^0----||
G#|-----------------------|--------------------|---------------------||
D#|-----------------------|--------------------|---------------------||


   Outro
 
D#|-2--2---2--2-2---|-----------3-(3)-3-3-3-3--3-3-|
A#|-3--3---3--3-3-0-|-3-3-3-3-3-3-(3)-3-3-3-3--3-3-|
F#|-2--2---2--2-2-0-|-0-0-0-0-0-0-(0)-0-0-0-0--0-0-|
C#|-0--0---0--0-0-0-|-0-0-0-0-0-0-(0)-0-0-0-0--0-0-|
G#|-0-------------0-|-2-----2-2-2-(2)-2-2-2-2--2-2-|
D#|----2-0-2--2-2-0-|-3-----3-3-3-(3)-3-3-3-3--3-3-|
 |
  | Gtr II
  | 
D#|-----------------|------------------------------|
A#|-----------------|------------------------------|
F#|-----------------|-----------------------4/-----|
C#|-----------------|------------------------------|
G#|-----------------|------------------------------|
D#|-----------------|------------------------------|


    D        D/F#       G
       
D#|---2--2---2--2-2---|-------------3-(3)-3-3-3-3-3-3-|
A#|---3--3---3--3-3-0-|---3-3-3-3-3-3-(3)-3-3-3-3-3-3-|
F#|---2--2---2--2-2-0-|---0-0-0-0-0-0-(0)-0-0-0-0-0-0-|
C#|---0--0---0--0-0-0-|---0-0-0-0-0-0-(0)-0-0-0-0-0-0-|
G#|---0-------------0-|---2-----2-2-2-(2)-2-2-2-2-2-2-|
D#|------2-0-2--2-2-0-|---3-----3-3-3-(3)-3-3-3-3-3-3-|
  |
  |   W                   W
D#|-^10---------------|-^14---------------------------|
A#|-^10---------------|-^15---------------------------|
F#|-^11---------------|-^14---------------------------|
C#|-------------------|-------------------------------|
G#|-------------------|-------------------------------|
D#|-------------------|-------------------------------|


    D                      D/F#                G
   
D#|--2-----------2----------2--------2---2---|-------------3-(3)-3-3---3-3--3-3--|
A#|--3-----------3----------3--------3---3-0-|-3---3-3-3-3-3-(3)-3-3---3-3--3-3--|
F#|--2-----------2----------2--------2---2-0-|-0---0-0-0-0-0-(0)-0-0---0-0--0-0--|
C#|--0-----------0----------0--------0---0-0-|-0---0-0-0-0-0-(0)-0-0---0-0--0-0--|
G#|--0-------------------------------------0-|-2-------2-2-2-(2)-2-2---2-2--2-2--|
D#|--------------2----0-----2--------2---2-0-|-3-------3-3-3-(3)-3-3---3-3--3-3--|
  |
  |  
D#|-14-14-14s12-12-12---10-10------8-8-7---7-|-7s5---5-3------3--3---3---3-------|
A#|-----------------------------10-----------|-----------------------------------|
F#|-14-14-14s12-12-12---11-11------9-9-7---7-|-7s5---5-4------4--2---4---4-------|
C#|-----------------------------10-----------|-----------------------------------|
G#|------------------------------------------|-----------------------------------|
D#|------------------------------------------|-----------------------------------|


    D      D/F#       G
    
D#|-2--2---2--2-2---|------------------3-(3)--3--3---3---3--3--3-|
A#|-3--3---3--3-3-0-|--3-3-3--3-----3--3-(3)--3--3---3---3--3--3-|
F#|-2--2---2--2-2-0-|--0-0-0--0-----0--0-(0)--0--0---0---0--0--0-|
C#|-0--0---0--0-0-0-|--0-0-0--0-----0--0-(0)--0--0---0---0--0--0-|
G#|-0-------------0-|--2------2-----2--2-(2)--2--2---2---2--2--2-|
D#|----2-0-2--2-2-0-|--3------3-----3--3-(3)--3--3---3---3--3--3-|
  |
  |  
D#|-2---------------|--------------------------------------------|
A#|-3---------------|-----------10-------------------------10----|
F#|-2---------------|-12-----12----12-11--9-------------12----12-|
C#|-0---------------|------------------------12----(12)----------|
G#|-----------------|--------------------------------------------|
D#|-----------------|--------------------------------------------|


    D          D/F#                    G
      
D#|--2-----2-----2--------2-----2----|---------------3-(3)-3-3---3-3-3-3-|
A#|--3-----3-----3--------3-----3--0-|--3-3-3--3--3--3-(3)-3-3---3-3-3-3-|
F#|--2-----2-----2--------2-----2--0-|--0-0-0--0--0--0-(0)-0-0---0-0-0-0-|
C#|--0-----0-----0--------0-----0--0-|--0-0-0--0--0--0-(0)-0-0---0-0-0-0-|
G#|--0-----------------------------0-|--2------2--2--2-(2)-2-2---2-2-2-2-|
D#|--------2-0---2--------2-----2--0-|--3------3--3--3-(3)-3-3---3-3-3-3-|
  |
  |                                     ~~
  |  
D#|----------------------------------|-----------------------------------|
A#|-------------------------10-------|-----------------------------------|
F#|-11--------------9-11-12----12-11-|-12-----12-11-11s=9--9-9s7-7s4-4---|
C#|----12------(12)------------------|-----------------------------------|
G#|----------------------------------|-----------------------------------|
D#|----------------------------------|-----------------------------------|


    D      D/F#                     G
    
D#|-2--2---2-----------2-----2----|--------------3-(3)-3--3----3--3--3-3-|
A#|-3--3---3-----------3-----3--0-|---3--3-3-3-3-3-(3)-3--3----3--3--3-3-|
F#|-2--2---2-----------2-----2--0-|---0--0-0-0-0-0-(0)-0--0----0--0--0-0-|
C#|-0--0---0-----------0-----0--0-|---0--0-0-0-0-0-(0)-0--0----0--0--0-0-|
G#|-0---------------------------0-|---2------2-2-2-(2)-2--2----2--2--2-2-|
D#|----2-0-2-----------2-----2--0-|---3------3-3-3-(3)-3--3----3--3--3-3-|
  |
  | H      S  S  S  S  S  S  S  S    +Q      Q      E     S S  S  S  E
D#|-------------------------------|---------------------------------10---|
A#|----------------10-------------|----------------------10-8-10s12------|
F#|----------10-11----12-10-11-12-|-(12)---------------------------------|
C#|-------------------------------|--------------------------------------|
G#|-------------------------------|--------------------------------------|
D#|-------------------------------|--------------------------------------|


    D         D/F#          G
     
D#|---2---2---2--2----2---|-----------3-(3)-3-3---3-3-3-3-|
A#|---3---3---3--3----3-0-|-3-3-3-3-3-3-(3)-3-3---3-3-3-3-|
F#|---2---2---2--2----2-0-|-0-0-0-0-0-0-(0)-0-0---0-0-0-0-|
C#|---0---0---0--0----0-0-|-0-0-0-0-0-0-(0)-0-0---0-0-0-0-|
G#|---0-----------------0-|-2-----2-2-2-(2)-2-2---2-2-2-2-|
D#|-------2-0-2--2----2-0-|-3-----3-3-3-(3)-3-3---3-3-3-3-|
  |
  |  +H       Q  S  S S S   E S S E S S  E    S S S S S S
D#|-(10)------------------|-------------------------------|
A#|--------------8s10-8s7-|-8-7---------------3---3-------|
F#|-----------------------|-----9-7-7----7\-----4---5-4-2-|
C#|-----------------------|-----------9-------------------|
G#|-----------------------|-------------------------------|
D#|-----------------------|-------------------------------|


    Q       E E Q     E   S S   E S S E S S +S  S E S S S S
D#|-2-------2---2-----2---2---|-----------3-(3)-3-3-3-3-3-3-|
A#|-3-------3---3-----3---3-0-|-3-3-3-3-3-3-(3)-3-3-3-3-3-3-|
F#|-2-------2---2-----2---2-0-|-0-0-0-0-0-0-(0)-0-0-0-0-0-0-|
C#|-0-------0---0-----0---0-0-|-0-0-0-0-0-0-(0)-0-0-0-0-0-0-|
G#|-0-----------------------0-|-2-----2-2-2-(2)-2-2-2-2-2-2-|
D#|---------2-0-2-----2---2-0-|-3-----3-3-3-(3)-3-3-3-3-3-3-|
  |
  |  
D#|---------------------------|-----------------------------|
A#|---------------------------|-----------------------------|
F#|-4p2-----------2-----2-----|-----------------------------|
C#|-----3h4-0-------2-4---4-2-|-0---------------------------|
G#|---------------------------|-----------------------------|
D#|---------------------------|-----------------------------|


    D           D/F#              G
     
D#|-2-----2------2------2---2---|---------------3-(3)-3-3---3-3-3-3-|
A#|-3-----3------3------3---3-0-|-3---3-3-3---3-3-(3)-3-3---3-3-3-3-|
F#|-2-----2------2------2---2-0-|-0---0-0-0---0-0-(0)-0-0---0-0-0-0-|
C#|-0-----0------0------0---0-0-|-0---0-0-0---0-0-(0)-0-0---0-0-0-0-|
G#|-0-------------------------0-|-2-------2---2-2-(2)-2-2---2-2-2-2-|
D#|-------2-0----2------2---2-0-|-3-------3---3-3-(3)-3-3---3-3-3-3-|
  |
  | 
D#|---5---5---5-(5)---5---5---5-|---5-5---5-5---5--5----5-5---5-5---|
A#|-3---3---3-------3---3---3---|-3-----3-----3-------3-----3-----3-|
F#|-----------------------------|-----------------------------------|
C#|-----------------------------|-----------------------------------|
G#|-----------------------------|-----------------------------------|
D#|-----------------------------|-----------------------------------|


    D              D/F#         G
    
D#|-2-------2-------2---2-2---|-------------3-(3)-3-3--3--3-3-3-|
A#|-3-------3-------3---3-3-0-|-3---3-3-3-3-3-(3)-3-3--3--3-3-3-|
F#|-2-------2-------2---2-2-0-|-0---0-0-0-0-0-(0)-0-0--0--0-0-0-|
C#|-0-------0-------0---0-0-0-|-0---0-0-0-0-0-(0)-0-0--0--0-0-0-|
G#|-0-----------------------0-|-2-------2-2-2-(2)-2-2--2--2-2-2-|
D#|---------2----0--2---2-2-0-|-3-------3-3-3-(3)-3-3--3--3-3-3-|
  |
  |  
D#|---3-3-2-------------------|---------------------------------|
A#|-3-------3-----------------|---5-5---3-------------(3)-------|
F#|-----------2----(2)--------|-------------------------------2-|
C#|---------------------------|---------------------------------|
G#|---------------------------|---------------------------------|
D#|---------------------------|---------------------------------|


  F6                                G
  Gtr III
 
D#|-----------------------------0-0-|-0--------------------------------|
A#|-3p1---3p1---3p1---3p1-3-3-3-----|---3-3-3-3-3-3-3-3-3----3-5p3---3-|
F#|-----2-----2-----2---------------|---0-0-0-0-0-0-0-0-0-/4-4-4---4---|
C#|---------------------------------|---0-0-0-0-0-0-0-0-0--------------|
G#|---------------------------------|----------------------------------|
D#|---------------------------------|----------------------------------|

 
  D               G/DXII                       DXIV

D#|---------------|-------------|--3p2-----------^2-----(2)---------|
A#|-5s7--(7)------|-^(7)--------|------3---------^3-----(3)---------|
F#|---------------|-------------|--------2-------^2-----(2)---------|
C#|---------------|-------------|----------5p4-0-^0-----(0)---------|
G#|---------------|-------------|-----------------------------------|
D#|---------------|-------------|-----------------------------------|



************************************

| (n)  Ghost note
| h    Hammer-on
| p    Pull-off
| b    Bend
| /    Slide up
| \    Slide down

************************************
Suggest correction
Creating personal tab
Creating personal tab
You can edit any tab online and save it as your Personal.

You can edit, replace or remove any tab part or add personal notes – all changes will be seen only by you.

Personal tabs can be accessed anytime from any device, even offline.
Learn more »
comments
print report bad tab
3 comments total.
0 reply
slayer5636 10 Feb 20, 2010 08:32 AM

not bad, but i think its too hard for my memory

+3 reply
rockfreak611 110 Jul 22, 2010 11:01 AM

way to make such a simple song so hard to read.

0 reply
magnum 160 10 Mar 07, 2011 03:49 PM

there is considerably more picking through the intro rather than strumming and hammering/pulling a few notes. chord progression is easy enough to pick up, solo sounds good, but damn...this is no simple read whatsoever.

guest
You may want to rate the tab now too:
select rating
Wanna post a correction for this tab? Suggest correction