Oops, an error
Loading. Please wait.

Rocket Queen Tab

version 1
version 1

Solo

Whole song

17,673 views 9 this week
6 commentsread comments
1 2 3 4 5
x 12
add to favorites
×
Save as Personal and add changes to this tab that will be seen only by you. Learn more ›
×
You can save this tab as Personal to edit and correct it or add notes. All changes will be seen only by you. Learn more »
save as personal
new!
launch autoscroll
font size
0
reset
how to read this tab
guitar tuner
backing track
0:00
0:00
Autoscroll
slow
fast
+/-
esc
set tempo
stop
Guns n Roses
Rocket queen
Solo tab

e--------------------------------------------------------------------------------|
b--------------------------------------------------------------------------------|
g--------10-----13--12-------7h8h10-----8b-7-10----15b-13-15b-13-1313----17b-15--|
d---10---------------------------------------------------------------------------|
a--------------------------------------------------------------------------------|
E--------------------------------------------------------------------------------|

e--------------------------------------------------------------------------------------------------21-19--|
b----------------------------------------------------------------------------------16-21-19-21------------|
g---17b-15-15-15----19b-17—17b-17b-----13/12-13/12—8h10-10-17---------------------------------------------|
d---------------------------------------------------------------------------------------------------------|
a---------------------------------------------------------------------------------------------------------|
E---------------------------------------------------------------------------------------------------------|

e------15/17-22-21/0-------|
b--------------------------|
g--------------------------|
d--------------------------|
a--------------------------|
E--------------------------|

Solo 2

e--------------------------------------------------------------------------------------------------|
b--------------------------------------------------------------------------------------------------|
g-12b-10-12-8-10/12-10-8-----12-12p10----12-------------------12-10-----17-15-12-10----------------|
d-------------------------------10-------------13-----13-12-10/8/10---------13-----------------13--|
a--------------------------------------------------------------------------------------------------|
E--------------------------------------------------------------------------------------------------|

e---------------------------------------------------------------------------------------------|
b------------------------------------------------20-20p18-16-18-20-18-16--------16--------18--|
g--17-15-12-10-----20-19-17-15-12-10-----------------------------------17-17----17-17---------|
d------------------13-------------------------------------------------------------------------|
a---------------------------------------------------------------------------------------------|
E---------------------------------------------------------------------------------------------|


e-------------------------------------------------------------------------------------------|
b-20-18-16-18-20-18-16--------16---------18--------16---------------------18-16-15h16p15x4--|
g-----------------------------17-17----17-17----17-17-----17-15-----------------------------|
d-----------------------------------------------------------------------17-15-17------------|
a-------------------------------------------------------------------------------------------|
E-------------------------------------------------------------------------------------------|

e---15b-16-----|
b--------------|
g--------------|
d--------------|
a--------------|
E--------------|

Enjoy                            L.B          ROCK ON
Suggest correction
comments
print report bad tab
6 comments total. Showing first comments.
0 reply
C_Turton 31 Nov 16, 2006 04:48 AM

Are you guys all on crack or something?

+5 reply
C_Turton 31 Nov 23, 2006 01:16 AM

The only reasons Slash Jr would call this sweet are:
1. He tabbed this himself.
2. He can't actually play.

0 reply
nobby1978 21 Jul 10, 2008 01:21 PM

although not very polite C Tuton has a good point, this is way off.

guest
Wanna post a correction for this tab? Suggest correction