Oops, an error
Loading. Please wait.

Since I Dont Have You tab

version 4
version 4

Whole song

Interactive

86,043 views 111 this week
11 commentsread comments
1 2 3 4 5
x 48
add to favorites
×
Save as Personal and add changes to this tab that will be seen only by you. Learn more ›
×
You can save this tab as Personal to edit and correct it or add notes. All changes will be seen only by you. Learn more »
launch autoscroll
font size
0
reset
how to read this tab
guitar tuner
backing track
0:00
0:00
edit
Autoscroll
slow
fast
+/-
esc
set tempo
stop
Author
Difficulty
Unregistered
intermediate
Since I Don’t Have You
Gun’s N Roses


Chords:

   G  Am Cm D  Em
E|-3--0--x--2--0-|
B|-0--1--2--3--0-|
G|-0--2--0--2--0-|
D|-0--2--2--0--2-|
A|-2--0--3--x--2-|
E|-3--x--x--x--0-|


[Intro]

e|---------------------------------------------------------|
B|------13b15---10br------10-----10h11p10------------------|
G|--------------------12-------------------8-7-------------| 
D|--12-----------------------------------------------------|
A|---------------------------------------------------------|
E|---------------------------------------------------------|(x2)

then
e|----14br--14--12h14p12-10--------------------------------|
B|----------------------------10br----10--10h11p10---------|
g|---------------------------------12---------------10-8---|
D|---------------------------------------------------------|
A|---------------------------------------------------------|
E|---------------------------------------------------------|

e|---------------------------------------|
B|---------------------------------------|
G|--/9-11-9--11--14--11--9---7------7h9--|
D|-----------------------------9---------|
A|---------------------------------------|
E|---------------------------------------|

G           Cm         D
I don't have plans and schemes,
    G          Cm          D
And I don't have hopes and dreams.
G          Cm
I don't have anything,
Am            D
Since I don't have you.
    G          Cm     D
And I don't have fond desires,
    G          Cm      D
and I don't have happy hours.
G          Cm
I don't have anything,
Am                 D
Since I don't have you.
D                D
Happiness, and I guess,
Am            G
I never will again.
Am
When you walked out on me,
G
In walked ol' misery,
Am                      D
And he's been here since then.

(Yeah, we're f****d!)


[Solo]

e|-------------------------------------|--------------------------|
B|-------------------------------------|--------------------------|
G|-----19^-----------------------------|-----19^^-----------------|
D|---------21b--19-21--19h21p19p17\15~-|-----------21b--19-21-----|
A|--17---------------------------------|-17-----------------------|
E|-------------------------------------|--------------------------|

e|-------------------|--------------------------------------------|
B|-------------------|---19^^--19--17h19p17\15~-------------------|
G|-------------------|---------------------------17--15--19^^-----|
D|--19h21p19p17\15~--|--------------------------------------------|
A|-------------------|--------------------------------------------|
E|-------------------|--------------------------------------------|

e|-------------------|--------------------------------------------|
B|-------------------|--------------------------------------------|
G|--17h19p17p15\13~--|--------------------------------------------|
D|-------------------|----15--h17p15---15--17/19--21-21-21--------|
A|-------------------|--------------------------------------------|
E|-------------------|--------------------------------------------|

e|----------------------------------------------------------------|
B|----------------------------------------------------------------|
G|----------------------------------------------------------------|
D|---19-19-19---17b--15-------------------------------------------|
A|----------------------19--17------------------------------------|
E|----------------------------------------------------------------|

(Rhythm Guitar plays
G, Cm, D x2
G, Cm, Am, D 
in background)

G          Cm        D
I don't have love to share,
    G           Cm       D
And I don't have one who cares.
G          Cm
I don't have anything,
Am                 D
Since I don't have you.

G   Em  Am  D
You You You Naaahaa
G   Em  Am  D
You You You naaahaa



************************************

| x   Dead note
| h   Hammer-on
| p   Pull-off
| b   Bend
| br  Bend release
| /   Slide up
| \   Slide down
| ~   Vibrato

************************************
Suggest correction
Creating personal tab
Creating personal tab
You can edit any tab online and save it as your Personal.

You can edit, replace or remove any tab part or add personal notes – all changes will be seen only by you.

Personal tabs can be accessed anytime from any device, even offline.
Learn more »
comments
print report bad tab
11 comments total. Showing first comments.
0 reply
vanceboy 142 Apr 28, 2006 01:44 PM

Seems pretty solid...chords may be a little off though.

+1 reply
deltaguitar 26 Jul 13, 2006 03:23 PM

Try the bar form of the Cm: x35543. It sounds a little better.

+1 reply
vanceboy 142 Jul 15, 2006 01:24 AM

yeah...ur Cm is way off. Barre Chord should be used.

guest
Wanna post a correction for this tab? Suggest correction