Oops, an error
Loading. Please wait.

Sweet Child O Mine Tab

version 2
version 2

Intro

Whole song

387,342 views 498 this week
16 commentsread comments
1 2 3 4 5
accurate
x 191
add to favorites
launch autoscroll
font size
0
reset
how to read this tab
guitar tuner
Autoscroll
slow
fast
+/-
esc
set tempo
stop
Help us to improve Ultimate-Guitar.com Take our survey!
×
Author
Difficulty
Tuning
novice
D# G# C# F# A# D#
Guitar tuned 1/2 step down (D# G# C# F# A# D#)

D#|----------------------15--------14--------|
A#|-------15---------------------------------|
F#|-----------14---12---------14------14-----|
C#|---12-------------------------------------|
G#|------------------------------------------|
D#|------------------------------------------|

D#|-----------------------15--------14---------|
A#|--------15----------------------------------|
F#|------------14---12---------14------14------|
C#|----12--------------------------------------|
G#|--------------------------------------------|
D#|--------------------------------------------|

D#|----------------------15--------14--------|
A#|-------15---------------------------------|
F#|-----------14---12---------14------14-----|
C#|---14-------------------------------------|
G#|------------------------------------------|
D#|------------------------------------------|

D#|------------------------15--------14--------|
A#|---------15---------------------------------|
F#|-------------14---12---------14------14-----|
C#|------14------------------------------------|
G#|--------------------------------------------|
D#|--------------------------------------------|

D#|----------------------15--------14--------|
A#|-------15---------------------------------|
F#|--11-------14---12---------14------14-----|
C#|------------------------------------------|
G#|------------------------------------------|
D#|------------------------------------------|

D#|-------------------------15--------14-------|
A#|----------15--------------------------------|
F#|--11----------14---12---------14------14----|
C#|--------------------------------------------|
G#|--------------------------------------------|
D#|--------------------------------------------|

D#|----------------------15--------14--------|
A#|-------15---------------------------------|
F#|-----------14---12---------14------14-----|
C#|---12-------------------------------------|
G#|------------------------------------------|
D#|------------------------------------------|

D#|------------------------15--------14--------|
A#|---------15---------------------------------|
F#|-------------14---12---------14------14-----|
C#|-----12-------------------------------------|
G#|--------------------------------------------|
D#|--------------------------------------------|

D#|----------------------15--------14---------|
A#|-------15----------------------------------|
F#|-----------14---12---------14------14------|
C#|---12--------------------------------------|
G#|-------------------------------------------|
D#|-------------------------------------------|

D#|-----------------------15--------14----------|
A#|--------15-----------------------------------|
F#|------------14---12---------14------14-------|
C#|----12---------------------------------------|
G#|---------------------------------------------|
D#|---------------------------------------------|

D#|----------------------15--------14---------|
A#|-------15----------------------------------|
F#|-----------14---12---------14------14------|
C#|---14--------------------------------------|
G#|-------------------------------------------|
D#|-------------------------------------------|

D#|-----------------------15--------14----------|
A#|--------15-----------------------------------|
F#|------------14---12---------14------14-------|
C#|-----14--------------------------------------|
G#|---------------------------------------------|
D#|---------------------------------------------|

D#|----------------------15--------14---------|
A#|-------15----------------------------------|
F#|--11-------14---12---------14------14------|
C#|-------------------------------------------|
G#|-------------------------------------------|
D#|-------------------------------------------|

D#|------------------------15--------14---------|
A#|---------15----------------------------------|
F#|-11----------14---12---------14------14------|
C#|---------------------------------------------|
G#|---------------------------------------------|
D#|---------------------------------------------|


D#|----------------------15--------14--------|
A#|-------15---------------------------------|
F#|-----------14---12---------14------14-----|
C#|---12-------------------------------------|
G#|------------------------------------------|
D#|------------------------------------------|

D#|------------------------15--------14----------|
A#|---------15-----------------------------------|
F#|-------------14---12---------14------14-------|
C#|-----12---------------------------------------|
G#|----------------------------------------------|
D#|----------------------------------------------|

D#|----------------------15--------14---------|
A#|-------15----------------------------------|
F#|-----------14---12---------14------14------|
C#|---12--------------------------------------|
G#|-------------------------------------------|
D#|-------------------------------------------|

D#|-----------------------15--------14----------|
A#|--------15-----------------------------------|
F#|------------14---12---------14------14-------|
C#|----12---------------------------------------|
G#|---------------------------------------------|
D#|---------------------------------------------|


D#|----------------------15--------14---------|
A#|-------15----------------------------------|
F#|-----------14---12---------14------14------|
C#|---14--------------------------------------|
G#|-------------------------------------------|
D#|-------------------------------------------|

D#|-----------------------15--------14----------|
A#|--------15-----------------------------------|
F#|------------14---12---------14------14-------|
C#|-----14--------------------------------------|
G#|---------------------------------------------|
D#|---------------------------------------------|

D#|----------------------15--------14------------|
A#|-------15-------------------------------------|
F#|--11-------14---12---------14------14------11-|
C#|----------------------------------------------|
G#|----------------------------------------------|
D#|----------------------------------------------|

D#|--------------------15--------14----------|
A#|-----15-----------------------------------|
F#|---------14---12---------14------14-------|
C#|------------------------------------------|
G#|------------------------------------------|
D#|------------------------------------------|

D#|----------------------15--------14---------|
A#|-------15----------------------------------|
F#|-----------14---12---------14------14------|
C#|---12--------------------------------------|
G#|-------------------------------------------|
D#|-------------------------------------------|

D#|-----------------------15--------14----------|
A#|--------15-----------------------------------|
F#|------------14---12---------14------14-------|
C#|----12---------------------------------------|
G#|---------------------------------------------|
D#|---------------------------------------------|


D#|-----------------------------------------------------------|
A#|-----------------------------------------------------------|
F#|-----------------------------------------------------------|
C#|-----14------14-----14-----14-----14----14------14------14-|
G#|---------15-----------------------------------------15--15-|
D#|-12-------------12------14-----15-----14-----12------------|
Suggest correction
comments
print report bad tab
16 comments total. Showing first comments. show 2 bad comments
+4 reply
Denomoses 10 wrote on May 20 2008, 06:11 am

This is th only good tab for Sweet child of mine intro. The only problem is that this is for standard. It is played tuned down half a step. You two idiots wouldnt know a good tab if your life depended on it.

guest
You may want to rate the tab now too:
select rating
Wanna post a correction for this tab? Suggest correction