Oops, an error
Loading. Please wait.

Sweet Child O Mine Tab

version 3
version 3
9,850,140 views 2,226 this week
706 commentsread comments
1 2 3 4 5
excellent!
x 2,094
add to favorites
launch autoscroll
font size
0
reset
how to read this tab
guitar tuner
Autoscroll
slow
fast
+/-
esc
set tempo
stop
Help us to improve Ultimate-Guitar.com Take our survey!
×
[Intro]

e|--------------15----14-----|--------------15----14-----|
B|-----15--------------------|-----15--------------------|
G|--------14-12----14----14--|--------14-12----14----14--|
D|--12-----------------------|--12-----------------------|
A|---------------------------|---------------------------|
E|---------------------------|---------------------------|

e|--------------15----14-----|--------------15----14-----|
B|-----15--------------------|-----15--------------------|
G|--------14-12----------14--|--------14-12----------14--|
D|--14-----------------------|--14-----------------------|
A|---------------------------|---------------------------|
E|---------------------------|---------------------------| 
                       
e|--------------15----14-----|--------------15----14-----|
B|-----15--------------------|-----15--------------------|
G|--12----14-12----14----14--|--12----14-12----14----14--|
D|---------------------------|---------------------------|
A|---------------------------|---------------------------|
E|---------------------------|---------------------------|

e|--------------15----14-----|--------------15----14-----|
B|-----15--------------------|-----15--------------------|
G|--------14-12----14----14--|--------14-12----14----14--|
D|--12-----------------------|--12-----------------------|
A|---------------------------|---------------------------|
E|---------------------------|---------------------------|

e|--------------15----14-----|--------------15----14-----|
B|-----15--------------------|-----15--------------------|
G|--------14-12----14----14--|--------14-12----14----14--|
D|--12-----------------------|--12-----------------------|
A|---------------------------|---------------------------|
E|---------------------------|---------------------------| 

e|--------------15----14-----|--------------15----14-----|
B|-----15--------------------|-----15--------------------|
G|--------14-12----------14--|--------14-12----------14--|
D|--14-----------------------|--14-----------------------|
A|---------------------------|---------------------------|
E|---------------------------|---------------------------

e|--------------15----14-----|--------------15----14-----|
B|-----15--------------------|-----15--------------------|
G|--12----14-12----14----14--|--12----14-12----14----14--|
D|---------------------------|---------------------------|
A|---------------------------|---------------------------|
E|---------------------------|---------------------------|

e|--12------------12----14---|--15----14----12---------------14---|
B|---------15----------------|---------------------15--------15---|
G|-----14------14----14---14-|-----14----14----14------14----14---|
D|---------------------------|------------------------------------| 
A|---------------------------|------------------------------------| 
E|---------------------------|------------------------------------| 


[Chorus]

e|---------------------------|--------------12----10-----|
B|--14-14-------15----14-----|--13-13--------------------|
G|--------14-------14----14--|--------12-10----12----12--|
D|-----------14--------------|---------------------------|
A|---------------------------|---------------------------|
E|---------------------------|---------------------------| 
 
e|--------------15----14-----|--------------15---14-----|
B|-----15--------------------|-----15-------------------|
G|--------14-12----14----14--|--------14-12---14----14--|
D|--12-----------------------|--12----------------------|
A|---------------------------|--------------------------|
E|---------------------------|--------------------------| 
                 
e|---------------------------|--------------12----10-----|
B|--14-14-------15----14-----|--13-13--------------------|
G|--------14-------14----14--|--------12-10----12----12--|
D|-----------14--------------|---------------------------|
A|---------------------------|---------------------------|
E|---------------------------|---------------------------|
 
e|---------------------------|---------------------------|
B|--------15-----------------|---------------------------|
G|--12s14--------------------|---------------------------|
D|---------------------------|---------------------------|
A|---------------------------|---------------------------|
E|---------------------------|---------------------------|


[Fill]

e|-------------------------------------------------------------|
B|---10---8--7-----10--8--7----10---8------10---8-----10-\-8---|
G|-------------------------------------9------------9----------|
D|-------------------------------------------------------------|
A|-------------------------------------------------------------|
E|-------------------------------------------------------------|

e|------------------10--10b--(10)---------------|
B|-10-b-(10)8--10-b--------------full-----------|
G|--------------------------------9-b-----------|
D|----------------------------------------------|
A|----------------------------------------------|
E|----------------------------------------------|


[Fill 2]

e|-------------------------------------------------------------|
B|---10---8--7-----10--8--7----10---8------10---8-----10-\-8---|
G|-------------------------------------9------------9----------|
D|-------------------------------------------------------------|
A|-------------------------------------------------------------|
E|-------------------------------------------------------------|

e|--------------------------------10--------------------|
B|-10-\-8-7hb--(7)----7-b------------(7)-----10----8--7-|
G|------------------7-----------------------------------|
D|------------------------------------------------------|
A|------------------------------------------------------|
E|------------------------------------------------------|

e|------------------------10----10-\-8-------/12--------|
B|-10---8----7-----/10-b--------------------------------|
G|------------------------------------------------------|
D|------------------------------------------------------|
A|------------------------------------------------------|
E|------------------------------------------------------|

e|--12---12-\-10---10-(10)\-8---7-b--(7)----------------|
B|-----------------------------------------8------------|
G|---------------------------------------------7-~~~~~~~|
D|------------------------------------------------------|
A|------------------------------------------------------|
E|------------------------------------------------------|

e|-----------------------10---10-b--(10)-------------17----(17)|
B|-10-b--(10)p8---10-b-------------------17-b---(17)-------(17)|
G|-------------------------------------------------------------|
D|-------------------------------------------------------------|
A|-------------------------------------------------------------|
E|-------------------------------------------------------------|


[Chorus]

e|-----------------------------|
B|--7hb------------------------|
G|------7----------------------|
D|--------7--5-/-4---0---------|
A|----------------------3b-----|
E|-----------------------------|


[Solo]

e|-17b--hold----15--14--h15p14-----------15--14--h15p14-----------12--14-|
B|-----------------------------17-----------------------17-16------------|
G|-----------------------------------------------------------------------|
D|-----------------------------------------------------------------------|
A|-----------------------------------------------------------------------|
E|-----------------------------------------------------------------------| 

e|-----------------------------------------------------------------------|
B|--15b--12----------------------------------------13-12-------h13p12\10-|
G|----------14b--12--11h12----------------11-12-14-----------------------|
D|-----------------------------14-----14---------------------------------|
A|-----------------------------------------------------------------------|
E|-----------------------------------------------------------------------|

e|---------------------------------------------15b-----------------------|
B|--13b-----13-----12--12-(12)-------12b----------------7bb--------------|
G|-----------------------------------------14-----------------9--9-------|
D|-----------------------------------------------------------------------|
A|-----------------------------------------------------------------------|
E|-----------------------------------------------------------------------|

e|-----------------------------------------------------------------------|
B|-----7b----------------------------------------------------------------|
G|----------9--9-----8b----8/11---------11b---9-----------------9--------|
D|-----------------------------------------------9b---7---9--------------|
A|-----------------------------------------------------------------------|
E|-----------------------------------------------------------------------|

e|-----------------------------------------------------------------------|
B|--------7h8--p7---------------------------------------------7b---7-10b-|
G|----------------------9------8b-----8------/11-----9b--8-9-----9-------|
D|-----------------------------------------------------------------------|
A|-----------------------------------------------------------------------|
E|-----------------------------------------------------------------------|

e|-7-8p7-11p7-8-11-12/14-11-12--14/15-12-14-15p14-12----14p11-12h14p12---|
B|---------------------------------------------------15----------------15|
G|-----------------------------------------------------------------------|
D|-----------------------------------------------------------------------|
A|-----------------------------------------------------------------------|
E|-----------------------------------------------------------------------|

e|-17--------------------------------------------------------------------|
B|----15b---15b---15b---15b---15b-p12-----15b----15b--------15b-p12------|
G|------------------------------------14----------------------------14---|
D|-----------------------------------------------------------------------|
A|-----------------------------------------------------------------------|
E|-----------------------------------------------------------------------|

e|----------------------------------15-----------------------------------|
B|--17b---17b--------17b----17b----------17b---------17b-p15--15h17------|
G|-------------------17b-------------------------------------------------|
D|-----------------------------------------------------------------------|
A|-----------------------------------------------------------------------| 
E|-----------------------------------------------------------------------| 

e|-----------12----------------------------------------------------------|
B|-15b------------15---12------------------------------------------------|
G|---------------------------14b-p12-14---12-14----12--14b----12--14--12-|
D|-----------------------------------------------------------------------|
A|-----------------------------------------------------------------------|
E|-----------------------------------------------------------------------|

e|----15-------------15-----15-----15------------------------------------|
B|----15-------15----15-----15-------15----------------------------------|
G|-14b--14--12-14b-----14b----14b------14b-p12----14p12--x-x----12b------|
D|---------------------------------------------14--------x-x-------------|
A|-----------------------------------------------------------------------|
E|-----------------------------------------------------------------------|

e|-----------------------------------------------------------------------|
B|-----------------------------------------------------------------------|
G|-----------------12h14p12----12b--------------------12h14p12-----12-12-|
D|-14p12-14----x-x----------14--------14p12-14----x-x----------14--------|
A|-----------------------------------------------------------------------|
E|-----------------------------------------------------------------------|

e|----------------------------------------------12-12-------15-15p12--15-|
B|-------------------12-12-------15-15p12-------------15p12--------------| 
G|-------14-14p12-14-------14p12-----------------------------------------| 
D|-14p12-----------------------------------------------------------------| 
A|-----------------------------------------------------------------------|
E|-----------------------------------------------------------------------| 

e|-14----12h15p12---------12-----------12-----------12-----------12------|
B|----15----------15--15b----15p12--------15p12-15b----15p12--------15p12| 
G|----------------------------------14b-----------------------14b--------|
D|-----------------------------------------------------------------------|
A|-----------------------------------------------------------------------|
E|-----------------------------------------------------------------------|

e|------12-----------12-----------12--------------12-------15b-----------|
B|--15b----15p12--------15p12-15b----15p12-----12----15p12---------------|
G|---------------14b-----------------------14b---------------------------|
D|-----------------------------------------------------------------------|
A|-----------------------------------------------------------------------|
E|-----------------------------------------------------------------------|

e|--------------------15------12h15p12----12------12---------------------|
B|-------------------------------------15-----15b-----15p12--------------|
G|-----------------------------------------------------------14b-p12-14b-|
D|-----------------------------------------------------------------------|
A|-----------------------------------------------------------------------|
E|-----------------------------------------------------------------------|

e|---------------------------------------------------|
B|-------15------------------------------------------|
G|----------14b-p12-14b----14p12--------------12-----|
D|----------------------14-------14------------------|
A|---------------------------------------------------|
E|---------------------------------------------------|


[Outro]

e|--------------------------------------------------------------------|
B|-----------------------------------------------------------------9--|
G|---------------------------------------------------------------9----| 
D|--14-/-9----9/5---------------------------------------------9-------|
A|---------------------10-/-7-/-2---------------------------7---------|
E|-------------------------------------5-/-3hb---3-/-0----------------|


*******************
|(n) Ghost note
| h  hammer on
| p  pull off
| x  dead note
| b  bend
*******************
Suggest correction
comments
print report bad tab
706 comments total. Showing first comments.
+38 reply
strongerthanall 20 wrote on September 5 2003, 12:00 am

GOOD JOB.......YOU'RE JUST ABOUT THE ONLY ONE WHO'S GOT HE'S *** STRAIGHT.

+34 reply
flea_slap_god 30 wrote on September 6 2003, 12:00 am

nice work

+43 reply
Mikkel 90 wrote on October 20 2003, 12:00 am

how ***ing complicated is this? why put the legend at the end that just doesnt make sense

guest
You may want to rate the tab now too:
select rating
Please do not post tabs as comments. Select "correction" instead!