Oops, an error
Loading. Please wait.
We have an official Sweet Child O Mine tab made by UG professional guitarists. Check out the tab »
×

Sweet Child O Mine Ukulele

version 3
version 3

Whole song

  • It's the same version play by the youtuber "The Uk... Show more
  • It shows how to play the intro while the others do not.
4,192 views 42 this week
no commentswrite comment
1 2 3 4 5
x 29
add to favorites
launch autoscroll
font size
0
reset
transpose
0
reset
simplify chords
display chords
guitar tuner
×
Best way to learn
"Sweet Child O Mine"
Autoscroll
slow
fast
+/-
esc
set tempo
stop
Normally, playing the intro like this on a guitar is quite a stretch, but the ukulele (particularly the 
soprano) is conveniently small!

Chords used:

   D    Cadd9    G    A    Em
A|-5----3--------2----0----2--|
E|-2----3--------3----0----3--|
C|-2----4--------2----1----4--|
G|-2----0--------0----2----0--|

Intro riff:

A|----5-0---10--9----|----5-0---10--9----|
E|--------3---5---5--|--------3---5---5--|
C|--2----------------|--2----------------|
G|-------------------|-------------------|
 
A|----5-0---10--9----|----5-0---10--9----|
E|--0-----3---5---5--|--0-----3---5---5--|
C|-------------------|-------------------|
G|-------------------|-------------------|

A|----5-0---10--9----|----5-0---10--9----|
E|--3-----3---5---5--|--3-----3---5---5--|
C|-------------------|-------------------|
G|-------------------|-------------------|

A|----5-0---10--9----|----5-0---10--9----|
E|--------3---5---5--|--------3---5---5--|
C|--2----------------|--2----------------|
G|-------------------|-------------------|


D
She's got smile that it seems to me
   Cadd9
reminds me of childhood memories,
       G                                          D
Where everything was as fresh as the bright blue sky
D
Now and then When I see her face
     Cadd9
she takes me away to that special place,
           G
and if I stared too long,
                            D
I'd probably break down and cry

 A           C                     D
Woah, woah, woah, sweet child o' mine
 A           C                     D
Woah, oh, oh, oh, sweet love of mine

D
She's got eyes of the bluest skies,
   Cadd9
as if they thought of rain
   G
I hate to look into those eyes
     D
and see an ounce of pain
D
Her hair reminds me of a warm safe place
      Cadd9
where as a child I'd hide,
     G
And pray for the thunder and the rain
     D
to quietly pass me by

 A          C                       D
Woah, woah, woah, sweet child o' mine
 A           C                      D
Woah, oh, oh, oh, sweet love o' mine

 A          C                       D
Woah, oh, oh, oh, sweet child o' mine
 A          C                       D
Woah, oh, oh, oh, sweet love o' mine
 A          C                       D
Woah, oh, oh, oh, sweet child o' mine
 A          C                       D
Woah, oh, oh, oh, sweet love o' mine

Em               G
Where do we go? Where do we go now?
A              C   D
Where do we go?
Em               G
Where do we go? Where do we go?
A               C   D
Where do we go now?
Em               G
Where do we go? Sweet child, where do we go now?
A               C   D
Where do we go?
Em               G
Where do we go? Where do we go now?
A               C   D
Where do we go?
Em               G
Where do we go? Where do we go?
A               C   D
Where do we go now?

       G           A   C  D        Em
sweet chiiiiiiiiiiiiiilldddd of mine


Credit to Joopedrome for the chord arrangement
Credit to me for the intro tab!
Suggest correction
comments
print report bad tab
guest
You may want to rate the tab now too:
select rating
Wanna post a correction for this tab? Suggest correction