Oops, an error
Loading. Please wait.

Sweet Child O Mine Bass Tab

version 4
409,395 views 669 this week
16 commentsread comments
1 2 3 4 5
accurate
x 47
add to favorites
launch autoscroll
font size
0
reset
guitar tuner
Autoscroll
slow
fast
+/-
esc
set tempo
stop
Help us to improve Ultimate-Guitar.com Take our survey!
×
Contributor
GnFnR 1,406
Sweet Child O Mine by Guns N Roses
tuned half step down

(0:15)


[Verse]

G|------11----11-12--14-16-14/12-11-------|----12-----10-9----10-9-----|
D|----12----12----------------------12-0--|-10-----10------10-----10-0-|
A|--12------------------------------------|----------------------------|
E|----------------------------------------|----------------------------|

G|-----------12-----11h12-11----12-11----|-------|
D|-------/12----12-----------12-------12-|-------|
A|--10-----------------------------------|---12\-|
E|---------------------------------------|-------|

G|----------------|----------------|-----------------------|----------------|
D|----------------|----------7-----|---------------3-2-----|----------------|
A|-5--0-5--5--0-5-|5--0-5--9---9-0-|-3--0-3--3--0-3----5-3-|----------------|
E|----------------|----------------|-----------------------|-3--0-3--3--0-3-|

                                  she's got a smile that it.....
G|--------------------------------|---------------|--------------|-----------------|-----------------|
D|o-------------------7-------5-4-|---------------|--------------|-----------------|-----------------|
A|o-5--0-5-5--0-5-7/9---9-0-5-----|-5--0-5-5--0-5-|-5--0-5-5-0-2-|-3--0-3--3---0-3-|-3--0-3--3-3-2-0-|
E|--------------------------------|---------------|--------------|-----------------|-----------------|

G|---------------|--------------|---------------|---7----------|
D|---------------|----------5---|---------------|----------5-4-|
A|---------------|------------0-|-5--0-5-5--x-5-|-5---0--5-----|
E|-3--0-3-3--0-3-|-3--r-3-3-----|---------------|--------------|

G|----------------|---------------|---------------------|---------------|
D|----------------|---------------|---------------------|---------------|
A|-5--0-5--5--0-5-|-5--x-5-5--0-2-|-3--0-3--3--0-3--2-0-|---------------|
E|----------------|---------------|---------------------|-3--0-3-3--0-3-|

G|----------------|---------------|----------------|------------------|
D|----------------|---------------|----------------|-------------1011-|
A|-3--------------|---------------|------------3-4-|-5--0-5-5--0------|
E|--0-0-0-1-1-2-2-|-3--0-3-3--0-3-|-3--0-3-3-0-----|------------------|

G|-----------------------|
D|-12-12-12-12-12--------|
A|-----------------------|
E|----------------0--12/-|


[Chorus]

G|----------------|---------------|---------------|----------------|
D|----------------|---------------|---------------|--------7-5-4---|
A|--------------2-|-3--r-3--3-3-0-|-5--r-5-5--r-5-|-5--r-5-------5-|
E|-5--r-5---5-5---|---------------|---------------|----------------|

G|-------------|--------------|------------------|----------------------|
D|-------------|--------------|-------------1011-|-12-12-12-12-12-------|
A|-----------2-|-3--r-3---3-4-|-5--x-5-5--x------|----------------------|
E|-5--r-5--5---|--------------|------------------|----------------0-12/-|


[Interlude 1]

G|---------------|----------7-----|---------------|--5-------5-----|
D|---------------|----------------|---------------|----------------|
A|-5--x-5-5--x-5-|-5--0-5-5---5-0-|-3--x-3-3--0-3-|-3-----0-3----0-|
E|---------------|----------------|---------------|----------------|

G|---------------|-----------------|---------------|---7----------|
D|---------------|-----------------|---------------|----------5-4-|
A|---------------|-----2-0-3-0-4-0-|-5--0-5-5--x-5-|-5----0-5-----|
E|-3--0-3-3--0-3-|-3-0-------------|---------------|--------------|

 She's got eyes of the.......
G|---------------|--------------|-----------------|-----------------|
D|---------------|--------------|-----------------|-----------------|
A|-5--0-5-5--0-5-|-5--0-5-5-0-2-|-3--0-3--3---0-3-|-3--0-3--3-3-2-0-|
E|---------------|--------------|-----------------|-----------------|

G|---------------|--------------|---------------|---7----------|
D|---------------|----------5---|---------------|----------5-4-|
A|---------------|------------0-|-5--0-5-5--x-5-|-5---0--5-----|
E|-3--0-3-3--0-3-|-3--r-3-3-----|---------------|--------------|

G|----------------|---------------|---------------------|---------------|
D|----------------|---------------|---------------------|---------------|
A|-5--0-5--5--0-5-|-5--x-5-5--0-2-|-3--0-3--3--0-3--2-0-|---------------|
E|----------------|---------------|---------------------|-3--0-3-3--0-3-|

G|----------------|---------------|----------------|------------------|
D|----------------|---------------|----------------|-------------1011-|
A|-3--------------|---------------|------------3-4-|-5--0-5-5--0------|
E|--0-0-0-1-1-2-2-|-3--0-3-3--0-3-|-3--0-3-3-0-----|------------------|

G|-----------------------|
D|-12-12-12-12-12--------|
A|-----------------------|
E|----------------0--12/-|


[Chorus 2]

G|----------------|---------------|---------------|----------------|
D|----------------|---------------|---------------|--------7-5-4---|
A|--------------2-|-3--r-3--3-3-0-|-5--r-5-5--r-5-|-5--r-5-------5-|
E|-5--r-5---5-5---|---------------|---------------|----------------|

G|-------------|--------------|------------------|----------------------|
D|-------------|--------------|-------------1011-|-12-12-12-12-12-------|
A|-----------2-|-3--r-3---3-4-|-5--x-5-5--x------|----------------------|
E|-5--r-5--5---|--------------|------------------|----------------0-12/-|


[Interlude 2]

G|---------------|----------7-----|---------------|--5-------5-----|
D|---------------|----------------|---------------|----------------|
A|-5--x-5-5--x-5-|-5--0-5-5---5-0-|-3--x-3-3--0-3-|-3-----0-3----0-|
E|---------------|----------------|---------------|----------------|

G|--------------|-----------------|---------------|---------------|
D|--------------|-----3-4-5-------|---------------|-----7-----5-4-|
A|--------------|-----------0-3-4-|-5--0-5-5--x-5-|-7/9---0-5-----|
E|3--0-3-3--0-3-|-3-0-------------|---------------|---------------|

G|---------------|---------------|---------------|---------------|
D|---------------|---------------|---------------|---------------|
A|-5--0-5-5--0-5-|-5--0-5-5--0-2-|-3--0-3-3--0-3-|-3--0-3--3-2-0-|
E|---------------|---------------|---------------|---------------|

G|----------------|-----------------|-------------|--------------------------|
D|----------------|-----3-4-5-------|-------------|---1212121212--12-12-12\--|
A|----------------|-----------0-3-4-|-5--0-5-5--5-|-0------------------------|
E|-3--0-3-3--0--3-|-3-0-------------|-------------|------------------------0-|


[Chorus 3]

G|---------------|--------------|---------------|-----------------|
D|---------------|--------------|---------------|---7-7-7-7-5-4---|
A|-------------2-|-3--r-3---3-0-|-5--0-5-5--0-5-|-5-------------5-|
E|-5--r-5----5---|--------------|---------------|-----------------|

G|-------------|--------------|---------------|------------------|
D|-------------|--------------|---------------|------------------|
A|-----------2-|-3--r-3---3-5-|-5--x-5-5--x-5-|-5----------------|
E|-5--r-5--5---|--------------|---------------|---0-2-0--3-0-4-0-|

G|---------------|--------------|---------------|-----------------|
D|---------------|--------------|---------------|---7-7-7-7-5-4---|
A|-------------2-|-3--r-3---3-0-|-5--0-5-5--0-5-|-5-------------5-|
E|-5--r-5----5---|--------------|---------------|-----------------|

G|-------------|--------------|------------------|---------------|
D|-------------|--------------|------------------|---------------|
A|-----------2-|-3--r-3---3-5-|-5-5-5-5--5-5-5-5-|-5-5-5-5-5-0-6-|
E|-5--r-5--5---|--------------|------------------|---------------|


[Solo 1]

G|-------------|--------5-------|-------4-----|----------------|
D|-------------|----------------|-------------|-------7--------|
A|--------7----|-3--3-------3---|-2--2--------|----------------|
E|-0--0------0-|--------------0-|-----------0-|-5--5-----0-3-2-|

G|-----------------------|------------------|
D|-------------------5-6-|-7-7-7-7--7-5-----|
A|-----------------------|--------------7-5-|
E|---5-5-5-5--5-5-5------|------------------|


[Solo 2]

G|-----------------|----------------|---------------|---------------|
D|-----------------|-------5--------|---------------|---------------|
A|-------7---------|----------------|---------------|-3-3-3-3--5----|
E|-0--0-----0-0--2-|-3--3-----3-3-0-|-5--0-5--5-5-0-|-------------3-|

G|-----------------|---------------|---------------|-----------------|
D|-----------------|------5--------|---------------|-----------------|
A|-------7---------|---------------|---------------|-----------------|
E|-0--0-----0-0--2-|-3--3----3-3-0-|-5--0-5--5-5-0-|-5--0-5--5-5---0-|

G|-----------------|
D|-----------------|
A|-3-3-3---3-5-----|
E|---------------3-|


[Breakdown]
(where do we go)

G|----------------|------------|------------|---------------|
D|----------------|------------|------------|---------------|
A|----------------|------------|------------|-r--3-3-3-5----|
E|-0--r-0-r--r--2-|-3--r--3--r-|-5--r--5--r-|-------------3-|

G|----------------|------------|------------|
D|----------------|------------|------------|
A|----------------|------------|------------|
E|-0--r-0-r--r--2-|-3--r--3--r-|-5--r--5--r-|

G|---------------|--------------|------------------|--------------------|
D|---------------|--------------|------------------|-/14-14-14-14--14-0-|
A|---------------|--------------|------------------|--------------------|
E|-0----0----0-2-|-3----3-----0-|-5-5-5-5--5-5-0-0-|--------------------|


[Outro]

G|----------------|------------------|----------------|---------------|
D|----------------|--------5---------|----------------|---------------|
A|------7---------|------------------|----------------|-3-3-3-3--5----|
E|-0--------0-0-2-|-3---3------3-3-0-|-5---0-5--5-5-0-|-------------3-|

G|----------------|------------------|----------------|-------------------|
D|----------------|-------5----------|----------------|-------------------|
A|------7---------|------------------|----------------|-3-3-3-3--5--------|
E|-0--------0-0-2-|-3---3------0-0-0-|-5---0-5--5-5-0-|-------------3b1/4-|

G|----------------------|--------------------|----------------|
D|----------14\---------|---------5----------|----------------|
A|----------------------|--------------------|----------------|
E|-0----0---------0-0-2-|-3----3-------3-3-0-|-5---0-5--5-5-0-|

G|--------------------|--------------------|-------------------|
D|--------------------|--------------------|---------5---------|
A|--7--5--------------|----------7---------|-------------------|
E|--------7---6--5--3-|-0----0-------0-0-2-|-3----3------3-3-0-|

                                          let ring
G|----------------|---------------------|-------------------|
D|----------------|---------------------|-------------------|
A|----------------|-3-----------5-------|-------------------|
E|-5--------------|---------------------|-0-----------------|

G|----------------|---------------------|-------------------|
D|----------------|---------------------|-------------------|
A|----------------|---------------------|-------------------|
E|-(0)------------|-(0)-----------------|-(0)---------------|



************************************

| x    Dead note
| (n)  Ghost note
| h    Hammer-on
| r    Release
| b    Bend
| /    Slide up
| \    Slide down 

************************************
Suggest correction new What's this?
You can suggest a correction to this tab. Community and Mods will review your correction and vote to approve or reject it.
comments
print report bad tab
16 comments total. Showing first comments. show 2 bad comments
+1 reply
Wiegraf 326 wrote on December 16 2004, 12:00 am

Indeed.

guest
You may want to rate the tab now too:
select rating
Please do not post tabs as comments. Select "correction" instead!