Oops, an error
Loading. Please wait.

The Godfather Theme Tab

version 4
version 4
10,528 views 27 this week
3 commentsread comments
1 2 3 4 5
accurate
x 4
add to favorites
launch autoscroll
font size
0
reset
how to read this tab
guitar tuner
Autoscroll
slow
fast
+/-
esc
set tempo
stop
Help us to improve Ultimate-Guitar.com Take our survey!
×
Author
Difficulty
Tuning
advanced
D# G# C# F# A# D#
I wont include the timing because if you know the song you will know how to play it

                    ~~                      ~~             1/2       1/2
|------------------------------------------------------------------------------|
|--14-13-14-15-14-14------14-13-14-15-14-14-------14-13-14-17^--14-13-16^--14--|
|--------------------14\--------------------13\--------------------------------|
|------------------------------------------------------------------------------|
|------------------------------------------------------------------------------|
|------------------------------------------------------------------------------|

   f    f    f  ~~                                        ~~
|----------------------------10-13-12-10-13-10-12-10---------------------------|
|-14^r------14^r----------10-------------------------11-13-10------------------|
|------14^r------13------------------------------------------------------------|
|------------------------------------------------------------------------------|
|------------------------------------------------------------------------------|
|------------------------------------------------------------------------------|

                                   ~~          f           f
|----10-13-12-10-13-10-12-10-----------------9-12^------9-10^---------|
|-10-------------------------5/10-9-8---8-11-------8-11---------------|
|---------------------------------------------------------------------|
|---------------------------------------------------------------------|
|---------------------------------------------------------------------|
|---------------------------------------------------------------------|

Unsure about this.  I modified it from the original score from the godfather theme.

|--------------------------------------------------|
|-------13-11-10-13-11-11-11-10--------------------|
|----10--------------------------------------------|
|-12----------------------------11-12--------------|
|--------------------------------------------------|
|--------------------------------------------------|

                       ~~        ~~~
|-10-10-9-8-12-12-10-------------------------------|
|--------------------11-10---10-9-8---8h11-9-10----|
|--------------------------------------------------|
|--------------------------------------------------|
|--------------------------------------------------|
|--------------------------------------------------|

Well thats all I know.  All suggestions and corrections welcome.
Please be kind, its my first attempt at this.        Carl Moran.

Notation used:
^  =  bend (how much is written above)
~~ =  Vibrato
p  =  pull off
h  =  hammer on
/  =  slide up
\  =  slide down

-----------------------------------------------------------------

OTHER VERSION:

This song is played slightly different everytime Slash does it,
so this is what I got from my bootlegged copy...
(Also I left out a lot of slides and vibrato I figure you can manage
to put it in yourself)

Tune down 1/2 step...  Eb Ab Db Gb Bb Eb

|----------------------------------------------------------------|
|-15---14-15-16--15-15---------15---14-15-16--15-15--------------|
|----------------------15---------------------------14-----------|
|----------------------------------------------------------------|
|----------------------------------------------------------------|
|----------------------------------------------------------------|
                         br        br      br     br
|------------------------/\--------/\-------------/\-------------|
|-15---14-15-18--15-14-15-(15)---14-(14)---/\---14-(14)----------|
|----------------------------------------14-(14)--------14-------|
|----------------------------------------------------------------|
|----------------------------------------------------------------|
|----------------------------------------------------------------|

|----10-13-12-10-13-10-12-10-------------------------------------|
|-10-------------------------11-13-10----------------------------|
|----------------------------------------------------------------|
|----------------------------------------------------------------|
|----------------------------------------------------------------|
|----------------------------------------------------------------|
                             s
|----10-13-12-10-13-10-12-10-------------------------------------|
|-10-------------------------/10-9-8-----------------------------|
|----------------------------------------------------------------|
|----------------------------------------------------------------|
|----------------------------------------------------------------|
|----------------------------------------------------------------|
  s        b            b/ s
|-----------/-------6-9-9----------------------------------------|
|----6-10-10-----/8---------------13-11-10-13-11-10-10-----------|
|-/7---------------------------10--------------------------------|
|--------------------------/12---------------------------11-12---|
|----------------------------------------------------------------|
|----------------------------------------------------------------|
              s
|-10-10-9-8-10/12-10-----------------------------------------10--|
|--------------------11-10----10-13-10-8----8-11-9-10-----10-----|
|----------------------------------------------------------------|
|----------------------------------------------------------------|
|----------------------------------------------------------------|
|----------------------------------------------------------------|
                                b   b   b
|-13^12^10--13^12^10--13^12^10---/---/--/--------------------------|
|------------------------------12--12--12-12-10-12-10-9-10-12-10-9-|
|------------------------------------------------------------------|
|------------------------------------------------------------------|
|------------------------------------------------------------------|
|------------------------------------------------------------------|

|-13-12-10-9-10-12-10-9----9-------------------------------------|
|-----------------------10---10-12-10-9----9----12---------------|
|---------------------------------------11---11----11-9----9-----|
|-------------------------------------------------------11---11--|
|----------------------------------------------------------------|
|----------------------------------------------------------------|
  s
|-----------------------------9-10-------------------------------|
|--------13-11-10-13-11-10-10------------------------------------|
|-----10---------------------------------------------------------|
|-/12------------------------------------------------------------|
|----------------------------------------------------------------|
|----------------------------------------------------------------|
Suggest correction new What's this?
You can suggest a correction to this tab. Community and Mods will review your correction and vote to approve or reject it.
comments
print report bad tab
3 comments total.
-1 reply
ilm97 12 wrote on November 9 2009, 04:15 pm

this is wrong

0 reply
gokusabsa 12 wrote on December 26 2009, 06:00 pm

the time is tho most important train puting the times and complete the song plzz

0 reply
kuszco 12 wrote on April 1 2011, 03:41 am

very wrong

guest
You may want to rate the tab now too:
select rating
Please do not post tabs as comments. Select "correction" instead!