Oops, an error
Loading. Please wait.

Welcome To The Jungle Bass Tab

version 1
version 1
139,312 views 276 this week
15 commentsread comments
1 2 3 4 5
accurate
x 44
add to favorites
launch autoscroll
font size
0
reset
guitar tuner
Autoscroll
slow
fast
+/-
esc
set tempo
stop
Help us to improve Ultimate-Guitar.com Take our survey!
×
Guns N Roses - Welcome to the Jungle
tabbed for bass by Andrew Goktepe 


[Intro]

G|--------------------------------------------------------------------|
D|---9---------------7------------------------------------------------|
A|--------------------------------------------------5---6---7---------|
E|-----------------------------7\------3------------------------------|

G|--------------------------------------------------------------------|
D|---7---8---9---9---9---9---9---9---9---9---9---9---9---9---9---9----|
A|--------------------------------------------------------------------|
E|--------------------------------------------------------------------|


G|--------------------------------------------------------------------|
D|---9---9---7---7---7---7---7---7---7---7---7---7---7---7---7---7----|
A|--------------------------------------------------------------------|
E|--------------------------------------------------------------------|


G|--------------------------------------------------------------------|
D|---7---6------------------------------------------------------------|
A|-----------7---7---7---7---7---7---7---7---7---7---7---7---7--------|
E|--------------------------------------------------------------------|


G|--------------------------------------------------------------------|
D|--------------------------------------------------------------------|
A|------7-------5-----------------------------------------------------|
E|----------7----------5------------7---7---7---7---7---7---7---7-----|


G|----------------------------------|
D|-----------7---8---9--------------|
A|-------9-------------------7------|
E|---7-/-----------------0----------|


G|--------------------------------------------|
D|*------------------------------------------*|
A|*------------------------------------------*|
E|-----5---5---3---5---5---5---3---2---0------|

repeat twice, then


G|------------------------------------|
D|------------------------5---4---5---|
A|------------------------------------|
E|----5---5---3---5---5---------------|


[Verse]

G|----------------------------------------------------|
D|*--------------------------------------------------*|
A|*--------------------------------------------------*|
E|-----5---5---3------5---5------5---3------2---0-----|

play 3 times, then


G|-----------------------------------------------|
D|-----------------------------------------------|
A|--------------------------------------------5--|
E|---5---5---3------5---5------5---3------5------|


G|----------------------------------------|
D|----------------------------------------|
A|---7------5------x---7---7---5---4------|
E|-------------------------------------7--|


G|----------------------------------------|
D|----------------------------------------|
A|---7---7---5---x---7---5---5---4--------|
E|-----------------------------------7----|



G|---------------------------------------|
D|---------------------------------------|
A|---7---7---5---x---7---x---5---4-------|
E|-----------------------------------7---|
if you got the money honey...


G|---------------------------------------|
D|---------------------------------------|
A|---7---7---5---x---7---5---5---7-------|
E|-----------------------------------7---|


G|--------------------------------------------------------------------|
D|--------------------------------------------------------------------|
A|--------------------------------------5---5-----5---5---5-----------|
E|---8---8---8---8---8---0---3------0-------------------------0-------|


G|-------------------------------------------------------------------------|
D|-------------------------------------------------------------------------|
A|---7---7---5-----------------------------7---7---------------------------|
E|---------------6---6------5---3---0--------------5---6---6---5---3---0---|


G|--------------------------------|
D|--------------------------------|
A|--7---7-------------------------|
E|----------5---6---6---5---3---0-|


G|-------------------------------|
D|-------------------------------|
A|------7---5--------------------|
E|--------------6---5---3---4----|
I wanna watch you bleed


G|------------------------------------------------|
D|---------------------------------------7---7----|
A|------------------------------------------------|
E|---6/7------6/7------6/7------6/7---------------|
I wanna hear you scream!


[1st Guitar Solo]

G|--------------------------------------------------------------|
D|---------------------------------------------------5----------|
A|-------4/5-----------7-------7-------4/5----------------------|
E|---0---------0---0-------0-------0---------0---0-------2---0--|

G|--------------------------------------------------------------|
D|--------------------------------------------------------------|
A|---0---4/5-----------7-------7-------4/5----------------------|
E|-------------0---0-------0-------0---------0---0---3\2---0----|


G|--------------------------------------------------------------|
D|---------------------------------------------------5-------5--|
A|---0---4/5-----------7-------7-------4/5----------------------|
E|-------------0---0-------0-------0---------0---3-------3------|


G|-------------------------------------------------------------|
D|-------------------------------------------------------------|
A|-------4/5-----------7----------4/5--------------------------|
E|---0---------0---0-------0------------0---3---3---2---0------|


G|-------------------------------|
D|-------------------------------|
A|---7---5-----------------------|
E|-----------6------5---3---0----|
I'm gonna watch you bleed


G|----------------------------------------------------------------------|
D|---------------------------5------------------------------5-----------|
A|---5---------------------------------5------------------------3---4---|
E|-------------------3---3--------------------------3---3---------------|


G|-----------------------------------------------------------------------|
D|----------------3---4------5---5---------------------------------------|
A|---5-------------------------------0---3---4---5---0---5---3---2-------|
E|-------------------------------------------------------------------0---|


G|--------------------------------------------------------------------|
D|--------------------------------------------------------------------|
A|--------------------------------------------------------------------|
E|---3---3---3---3---3-----1------3---3---3---3---3----1--------------|


G|--------------------------------------------------------------------|
D|-----------------------------------------------5---5---5---5--------|
A|--------------------------------------------------------------------|
E|---3---3---3---3---3----1------5---5---5---5------------------------|


G|--------------------------------------------------------------------|
D|---------------------------------------------------5----------------|
A|-------4/5-----------7-------7-------4/5----------------------------|
E|---0---------0---0-------0-------0---------0---3-------2---0--------|
Yeah!


G|--------------------------------------------------------------------|
D|-------------------------------------------------5---5---4----------|
A|-------4/5-----------7---7-----------4---5--------------------------|
E|---0---------0---0-----------0---0-----------0---------------7---8--|


[2nd Guitar Solo]


G|----------------------------------------------------------------------|
D|*--------------------------------------------------------------------*|
A|*--------------------------------------------------------------------*|
E|-----9---7---9---7---9---7---9---7------5---7---5---7---5---7---0-----|

play twice, then

G|--------------------------------------------------------------------|
D|--------------------------------------------------------------------|
A|--------------------------------------------------------------------|
E|------9---7---9---7---9---7---9---7------5---7---0---7---0---3---0--|


G|--------------------------------------------------------------------|
D|--------------------------------------------------------------------|
A|------------------7-------------------------------------------------|
E|------0---0---0-------0---0---0---0---0---0---0---0---4---5---7-----|


G|------------------------------------------------------------------|
D|--------------------------------------------------9---7-----------|
A|----------------------------------------------------------9---7---|
E|------7---7---0---7---5---6---7---0---7---0---7-------------------|


G|-----------------------------------------------------------------|
D|-----------------------------------------------------------------|
A|------7---5-------5---7---0---7------7---5-----------------------|
E|--------------7------------------------------7---4---5---6---7---|


G|----------------------------------------------------------|
D|------------------------------------------9---------------|
A|------------------------------------------------------7---|
E|------7---7-------7---7---0---7---7---7-------0---7-------|


G|-----------------------------------------------|
D|----------------------------------2---3--------|
A|-----------------------------------------------|
E|------2---2---2---2---2---2---2----------------|


G|-----------------------------------------------------------|
D|---4---3---4---4---4---2-----------------------------------|
A|---------------------------4---0------2------------2/------|
E|-----------------------------------------------------------|


G|-------------------------------------------------------------------|
D|---9---------------------------------------------------------------|
A|-------------------------------------------------------------------|
E|-------------------------------------------------------------------|


G|---------------------------------------------|
D|---------------------------------------------|
A|---------------------------------------------|
E|------0---0---2---2---3---3---2---3---4------|


G|------------------------------------------------------------------|
D|------------------------------------------------------------------|
A|------------------------------------------------------------------|
E|---3---3---2---2---3---3---4---5------5---4---4---5---5---6---7---|


G|----------------------------------------------------------------|
D|----------------------------------------------------------------|
A|---7---7---7---7---6---6---6---5---5---4---4---3---3---2---2----|
E|----------------------------------------------------------------|


G|----------------------------------------------------------------|
D|----------------------------------------------------------------|
A|---7---7---7---7---6---6---6---5---5---4---4---3---3---2---2----|
E|----------------------------------------------------------------|


G|---------------------------------------------------------------------|
D|*-------------------------------------------------------------------*|
A|*---7---7---7---7---6---6---6---5---5---5---4---4---3---3---2---2---*|
E|---------------------------------------------------------------------|

repeat 8 times


G|------------------------------------------------------------------|
D|------------------------------------------------------------------|
A|------------------------------------------------------------------|
E|------2---1---2---3---5---4---5---6---0---8---8---8---0---3---0---|


G|-----------------------------------------------------------|
D|-----------------------------------------------------------|
A|---5---5---5---5---5---5---7---7---5-----------------------|
E|---------------------------------------x---6---5---3---0---|


G|---------------------------------------------------------------|
D|---------------------------------------------------------------|
A|---7---7---5-----------------------3---3---3---3---------------|
E|---------------x---6---5---3---0-------------------0---3---0---|


G|------------------------------------------------------------|
D|*----------------------------------------------------------*|
A|*---5---5---5---5---5---0---7---7---5----------------------*|
E|----------------------------------------x---6---5---3---0---|

play twice


G|-----------------------------------------------------------|
D|-----------------------------------------------------------|
A|---3---3---3---3---------------5---5---5---5---5---0-------|
E|-------------------0---3---0-------------------------------|


G|-------------------------------------|
D|*-----------------------------------*|
A|*---7---7---5-----------------------*|
E|----------------x---6---5---3---0----|

play twice


G|-----------------------------------------------------------|
D|-----------------------------------------------------------|
A|---3---3---3---3---3---------------5---5---5---5---5---0---|
E|-----------------------0---3---0---------------------------|


G|--------------------------------------------------------------------|
D|--------------------------------------------------------------------|
A|---7---7---7---5----------------------------------7-----------------|
E|-------------------6---5---3---0---5---3---0------0-----------------|
                It's gonna bring you down



************************************

| x  Dead note
| /  Slide up
| \  Slide down

************************************
Suggest correction
What's this?
You can suggest a correction to this tab. Community and Mods will review your correction and vote to approve or reject it.
comments
print report bad tab
15 comments total. Showing first comments. show 1 bad comment
0 reply
Duff_McGee 440 wrote on September 6 2004, 12:00 am

Here's my version of the intro


-------------------------------------------------------
---9-------7-------------------------------------------
------------------------------------3-----1-----0------
----------------7-----/3---3---------------------------

-------------------------------------------------------
-----------------------------------7-8-9---------------
---------------------------------9---------7-----------
---9---3----7>-7-7-7-7-7-7-7-7-----------0-------------

(>) = accented note

0 reply
Duff_McGee 440 wrote on November 22 2004, 12:00 am

Nevermind dude...your beginning is correct...most of it anyways...

guest
You may want to rate the tab now too:
select rating
Please do not post tabs as comments. Select "correction" instead!