Oops, an error
Loading. Please wait.

Welcome To The Jungle Tab

version 1
version 1
108,582 views 63 this week
9 commentsread comments
1 2 3 4 5
x 25
add to favorites
launch autoscroll
font size
0
reset
how to read this tab
guitar tuner
Autoscroll
slow
fast
+/-
esc
set tempo
stop
Help us to improve Ultimate-Guitar.com Take our survey!
×
Tuning
D# G# C# F# A# D#
welcome to the jungle 1st & 2nd solo - guns n roses

  [1ST solo]                                                         P.M  
D#|-------------------------------------------------------|-------------------|
A#|--------------------------------12------------15~~~~~~-|---------------15--|
F#|x-12/13---x----13--13~~~~-(13)--12-13--x-x-x--16~~~~~~-|-12/13-------x-13--|
C#|x-11/12---x-14-14--14~~~~-(14)-----14--x-x-x-----------|-11/12-------x-----|
G#|-------------------------------------------------------|-------------------|
D#|--------0----------------------------------------------|-------0-0---------|

                                                                      __hold_
D#|----------------------x-15-|----------------19fb½-----19--18--17fb------r--|
A#|-15~~--14/15\\\---x-x-x-15-|-------------17--------------------------------|
F#|-13~~--15/16\\\---x-x------|----sl.\6/18-----------------------------------|
C#|---------------------------|-----------------------------------------------|
G#|---------------------------|-----------------------------------------------|
D#|---------------------------|-----------------------------------------------|

                                         ___hold___ 
D#|-(17)--15--16--------------------------------------------------------------|
A#|---------------15~~~~~(15)\\\\---15fb------(15)-15p12----------------------|
F#|------------------------------------------------------15-14fbr(14)p12-14p12|
C#|---------------------------------------------------------------------------|
G#|---------------------------------------------------------------------------|
D#|---------------------------------------------------------------------------|

                                   A.H 
D#|------------------------------------|--------------------------------------|
A#|------------------------------------|--THE-END-----------------------------|
F#|-------------------------------8fb½-|--------------------------------------|
C#|-14-12------------------------------|--------------------------------------|
G#|-------14-13-12fbr(12)p10-----------|--------------------------------------|
D#|--------------------------0---------|--------------------------------------|

  [2ND solo]                                slow bend  A.H pitch E#
D#|-------------------------------------------------------------|-------------|
A#|-------------------------------------------------------------|-------------|
F#|----------------------------------4-(4)hb---------6~~~~~~----|-------------|
C#|-------2---4fbr-(4)~~~~---2-2-4/6----------------------------|-------------|
G#|-4-------4---------------------------------------------------|-------------|
D#|-------------------------------------------------------------|-------------|

                          (6 fret)                 _hold______
D#|--------------------|--------7---(7)-------7--(7)-----7--------------------|
A#|-5hb---7fbr(7)~~~~--|--------7fbr(7)p5hb---7fb(7)~~~--7--r(7)p5------------|
F#|-----6--------------|--x-x--------------------------------------6-4~~~~~---|
C#|--------------------|------------------------------------------------------|
G#|--------------------|------------------------------------------------------|
D#|--------------------|------------------------------------------------------|

D#|--------------0-(0)-0-0-0-0-|----------------------------------------------|
A#|----------5---5-(5)-5-3-2-0-|-2hbr(2)p0-2hb---------0-(0)-0-0--------------|
F#|----sl./6---6---------------|-2hbr(2)p0-2hb-0-1-2-3-4--4--2-1--------------|
C#|-6--------------------------|---------------------------------4------------|
G#|----------------------------|----------------------------------------------|
D#|----------------------------|----------------------------------------------|

                                         _hold_______
D#|--------------------|------------------------------------------------------|
A#|--------------------|---------15-15fb--(15)--15-r(15)~~~~~~(15)\\\\\\------|
F#|--------------------|------------------------------------------------------|
C#|--4--2fbr(2)p0-2--0-|-1/12-------------------------------------------------|
G#|--------------------|------------------------------------------------------|
D#|--------------------|------------------------------------------------------|

                                           (6fret)     _hold_      _hold_
D#|-------------------------------9-\7--|-------------------------------------|
A#|-10fb-10fbr-10fbr(10)p8--------------|-------------------------------------|
F#|------------------------9\7/9-(9)\7--|---x-----6prhb----r-4----------------|
C#|-------------------------------------|----------------------6hb-----r-4----|
G#|-------------------------------------|-------------------------------------|
D#|-------------------------------------|-------------------------------------|

        _hold_     _hold_
D#|-------------------------------------------------|-------------------------|
A#|-------------------------------------------------|-------------------------|
F#|-------------------------------------------------|--the-end----------------|
C#|-------------------------------------------------|-------------------------|
G#|-4hb-----r-2-------------------------------------|-------------------------|
D#|-------------4hb----r-0----2~~~~~~~~~~~~~~~~~~(2)|-------------------------|

guitar legends:

x= dead note sometimes i put what fret should it be so just follow.
fb= full bend
fbr= full bend release if you see an "r" after a _hold_ that means release the
last bent note to the original tone.
fb½= full bend and a half equivalent to three frets bend.
hb= half bend
hbr= half bend release
/ or \= slide up or down
sl./6 or sl.\6 = slide up to the fret then strike or slide down to the fret then
strike. got it??? simple!!!!
p= pull off
h= hammer on
\\\\\\= slide down or long slide down indefinite frets then release pressure of the string.
(9) or something similar= is ghost from the last note or fret. it can mean also as "let ring"..
~~~~~~ = means vibrato by hand and not with trem.bar it will not have the same
tone if vibe. with trem.bar...
A.H = now this is tough. it means artificial harmonic/pinch harmonic. just touch
the string litely with the side of the right
thumb when striking or picking downwards. (hey i give a little tip here) just keep practicing.
r= release can see this also after the _hold_.
_hold_ = means hold the freakin bent string up and release it ONLY if you see
an "r" right after this _hold_... if not then 
just proceed to the next not/fret without the bent _hold_... alright???

Ok listen folks. here`s the bottom line, im not trying to say that this is "100%"
but for me, this is the 100% sure real records and not from the boook (ok
alittle) but still comes from my very two ears. dont trust the book `coz it ain`t
all correct. believe me, i have the book. if you have, then take the sweet child
o mine solo for example. ill update that sooner or later. so what im trying to
say is, is that listen very very carfully to the records (dont high the volume
too much otherwise youll not be able to here every detail on the song. believe me
this is how i got everything right) just do it and if your ears think that there
sounds something that you dont know what it is, just try figuring it out. this
solo took me too long to decide wich its gonna be. every hammer-on/pull-off i
nailed (according to my ears) and everything was as perfect as i can get.
well anyway....enough with the bla bla and just play the damn song!
Suggest correction
comments
print report bad tab
9 comments total. Showing first comments.
0 reply
mikedeit 1,163 Feb 27, 2005 12:00 AM

Pretty good.

0 reply
x13tom31x 10 Feb 28, 2005 12:00 AM

um its alright. the second solo is way off, the first one is almost dead on

0 reply
x13tom31x 10 Feb 28, 2005 12:00 AM

um its alright. the second solo is way off, the first one is almost dead on

guest
You may want to rate the tab now too:
select rating
Wanna post a correction for this tab? Suggest correction