Oops, an error
Loading. Please wait.

Welcome To The Jungle Tab

version 2
42,024 views 39 this week
19 commentsread comments
1 2 3 4 5
worth learning
x 27
add to favorites
launch autoscroll
font size
0
reset
how to read this tab
guitar tuner
Autoscroll
slow
fast
+/-
esc
set tempo
stop
Help us to improve Ultimate-Guitar.com Take our survey!
×
Author
Connor G. 585
        Tabber: Connor 

      Key:
         x = to mute
x (with #) = to repeat
        () = Not a nessesary Number
         ^ = Bend
         / = Slide Up
         \ = Down
         ` = A large number next to eachother  ( Ex. its like two 3's next to
             each other, but instead of, 1212, i put 12`12, think of them together

      e----------------------------|
      B----------------------------|
      G-3-3-3-1-3-1--3-3---3-3---3-|
      D-------------3-3-3-1-1-1----|
      A-------------------------4-1|
      E----------------------------|

      e-----------------|---------------------------|
      B-----------------|---------------------------|
      G-----------------|----------------6---------3|
      D-8----6----4----1|-8----6----4----6----6----3|
      A-8----6----4----1|-8----6----4----4----6----1|
      E-6----4----2----0|-6----4----2---------4-----|

      e-------------------|
      B-------------------|
      G-------------------|
      D-6-6-444-6--4--3--1|x3
      A-6-6-444-6--4--3--0|
      E-4-4-222-4--2--1---|

    ( High pitch solo thing I could'nt get )

   Welcome to the jungle....
     
      e---------------------------|
      B---------------------------|
      G---------------------------|
      D---------------------------|
      A---------------------------|
      E-16-16-14`14`14-16-14-13-11|


      e-4-4-222-4--2--1--|
      B-----------------4|
      G------------------|
      D------------------|
      A------------------|
      E------------------|

      e--------------------------|
      B--------------------------|
      G---------------6----------|
      D-8-------------6----------|
      A-8-------------4---3--1---|
      E-6---5--4--2-------------4|
  ( The 4 on B i just couldnt find that low of a not on and E )
      
      e------------------|
      B-----------------4|
      G------------------|
      D------------------|
      A------------------|
      E-11`11-9-9-5-4-2--|

      e-11-9-5^|
      B--------|
      G--------|
      D--------|
      A--------|
      E-11-9-5-|

      Welcome to the jungle....
     
      e---------------------------|
      B---------------------------|
      G---------------------------|
      D---------------------------|
      A---------------------------|
      E-16-16-14`14`14-16-14-13-11|

( in the backround of that ^ )
      e------------------------|
      B-9-7--------------------|
      G------9-7---------------|
      D-----------9-7----------|
      A----------------9-7-----|
      E---------------------9-7|

      e---------------------------|
      B---------------------------|
      G---------------------------|
      D---------------------------|
      A---------------------------|
      E-16-16-14`14`14-16-14-13-11|

      e-4-4-222-4--2--1--|
      B-----------------4|
      G------------------|
      D------------------|
      A------------------|
      E------------------|
      
      e--------------------------|
      B--------------------------|
      G---------------6----------|
      D-8-------------6----------|
      A-8-------------4---3--1---|
      E-6---5--4--2-------------4|

      e------------------|
      B-----------------4|
      G------------------|
      D------------------|
      A------------------|
      E-11`11-9-9-5-4-2--|

    Solo:
  
      e-----------------------------------------------|
      B--------------11-----13^---------14^`14^`\12/13|
      G-11/12--12-12----12--12^--11/12--13^`13^`\11/12|
      D-10/11--11-11----11-------10/11----------------|
      A-----------------------------------------------|
      E-----------------------------------------------|

      e-(9)/20--20-18-19--13-14-11------11\|
      B------------------------------------|
      G------------------------------------|
      D------------------------------------|
      A------------------------------------|
      E------------------------------------|

      e---------------------------|
      B---------------------------|
      G---------------------------|
      D---------------------------|
      A---------------------------|
      E-16-16-14`14`14-16-14-13-11|

      e-4-4-222-4--2--1--|
      B-----------------4|
      G------------------|
      D------------------|
      A------------------|
      E------------------|

      e--------------------------|
      B--------------------------|
      G---------------6----------|
      D-8-------------6----------|
      A-8-------------4---3--1---|
      E-6---5--4--2-------------4|

      e------------------|
      B-----------------4|
      G------------------|
      D------------------|
      A------------------|
      E-11`11-9-9-5-4-2--|
( kind of solo )
      e---------------------------|
      B-10--11--10---6----------11|
      G-10--11--10---6---11-10--11|
      D--x---x---x---x-----------x|
      A--8---9---8---4-----------9|
      E---------------------------|
      
      e-------------------------------------|
      B-------------------------------------|
      G-------------------------------------|
      D--44444--7--44444--7--44444--7--66666|
      A--44444--7--44444--7--44444--7--66666|
      E--22222--5--22222--5--22222--5--44444|

   Solo 2 was to hard.

     ( after hight pitch noise in bongo section )

      e----------------------------------|
      B----------------------------------|
      G----------------------------------|
      D----------------------------------|x2
      A----------------------------------|
      E-11`11`11`11`10`10`10`10-9999-8888|

      e------------------------------------------------|
      B------------------------------------------------|
      G------------------------------------------------|
      D------------------------------------------------|x6 ( i think )
      A-13`13`13`13`12`12`12`12`11`11`11`11`10`10`10`10|
      E-11`11`11`11`10`10`10`10-9--9---9--9-8---8--8--8|

      e-----------------------|
      B-----------------------|
      G-----------------------|
      D-10-9-10-11-14-13-14-16|
      A-8--7--8-9--12-11-12-14|
      E-----------------------|
   -----------------------------------
   |   e--------------------------|  |
   |   B--------------------------|  |
   |   G---------------6----------|  |
   |   D-8-------------6----------|  |
   |   A-8-------------4---3--1---|  |
   |   E-6---5--4--2-------------4|  |
   |                                 |
   |   e------------------|   _______|
   |   B-----------------4|   |
   |   G------------------|   |
   |   D------------------|   |
   |   A------------------|   | reapeat that hole thing 4 times and then...
   |   E-11`11-9-9-5-4-2--|   |
   |                          |
   ---------------------------|
       e---------------------------------------|
       B---------------------------------------|
       G---------------------------------------|
       D--------------------------------------1|
       A-13-11--8--6--4--1----6--4--1---------1|
       E-11--9--6--4--2--0----4--2--0---------0|

    please vote!!!
Suggest correction
What's this?
You can suggest a correction to this tab. Community and Mods will review your correction and vote to approve or reject it.
comments
print report bad tab
19 comments total. Showing first comments.
0 reply
2020vision 2,460 wrote on August 3 2004, 12:00 am

yeah, why dont you try being a little less of a jackass with your 'comments'? he probably knows he plays in Eb, but maybe some people want to play it in standard?

0 reply
2020vision 2,460 wrote on August 3 2004, 12:00 am

also, to improve the tab, try to organise it a lot better/include the other solos

0 reply
x13tom31x 16 wrote on February 28 2005, 12:00 am

yeah um i dont like it at all.. maybe it sounds good for u so w/e

guest
You may want to rate the tab now too:
select rating
Please do not post tabs as comments. Select "correction" instead!