Oops, an error
Loading. Please wait.

Welcome To The Jungle Bass Tab

version 4
version 4
52,833 views 96 this week
8 commentsread comments
1 2 3 4 5
excellent!
x 30
add to favorites
launch autoscroll
font size
0
reset
guitar tuner
Autoscroll
slow
fast
+/-
esc
set tempo
stop
Help us to improve Ultimate-Guitar.com Take our survey!
×
Author
Guns N’ Roses
Welcome To The Jungle
Appetite For Destruction
(down ½ step, Eb, Ab, Db, Gb)

(/) Slide Up  (\) Slide Down  (h) Hammer On  (p) Pull Off  (b) Bend (r) Release (v) Vibrato

Intro: (come in at 00:13, after Axl says ‘oh my ‘god’)
Gb|--------------------------|------------------------------------------------------------|
Db|-9v--7v-------------7-8-9-|-9-9-9-9-9-9-9-9-9-9--7-7-7-7-7-7-7-7-7-7-------------------|
Ab|-------------5-6-7--------|------------------------------------------6-6-6-6-6-6-6-6-6-|
Eb|--------7\3---------------|------------------------------------------------------------|

Gb|------------------------------------------|
Db|------------------------------7-8-9-------|
Ab|-5v-------------------------9---------9\3-|
Eb|----5v--7-7-7-7-7-7-7-7-7/9---------0-----|

Gb|--------------------|
Db|--------------------|
Ab|--------------------|  x3
Eb|-5-5-3-5-5--5-3-2-0-|

Gb|--------------------|
Db|--------------4-4-4-|
Ab|--------------------| x1
Eb|-5-5-3-5-5--5-------|

Verse: (00:36)

Gb|--------------------|
Db|--------------------|
Ab|--------------------| x4
Eb|-5-5-3-5-5--5-3-2-0-|

Gb|--------------------------|
Db|--------------------------|
Ab|--------------------5-6-7-| x1
Eb|-5-5-3-5-5--5-3-2-0-------|

Gb|--------------------|
Db|--------------------|
Ab|-7-7-5-7-7-7-5-4----| x4
Eb|------------------7-|

Pre-Chorus: (00:59)

Gb|-----------------------|
Db|-----------------------|
Ab|---------------5-5-5-5-|
Eb|-8-8-8-8-0-3-0---------|

Chorus: (01:03)

Gb|-------------------|
Db|-------------------|
Ab|-7-7-5-5-----------| x3
Eb|---------6-6-5-3-0-|

Gb|---------------|
Db|---------------|
Ab|-7--5----------| x1
Eb|-------6--5--3-|

Verse x1 (01:11)
Pre Chorus x1 (01:26)
Chorus x1 (01:31)

Solo 1: (01:39)

Gb|-----------------------------------|
Db|-----------------------------------|
Ab|-----4-5-----7-7-----4-5-----------| x2
Eb|-000-----000-----000-----000-3-3-3-|

Gb|-------------------------------------|
Db|-------------------------------5---5-|
Ab|-----4-5-----7-7-----4-5-------------| x1
Eb|-000-----000-----000-----000-3---3---|

Gb|---------------------------------|
Db|---------------------------------|
Ab|---4-5-----7-7-----4-5-----------| x1
Eb|-0-----000-----000-----000-3-3-3-|

Verse x1 (01:54)
Pre Chorus x1 (02:09)
Chorus x1 (02:13)

Slow Part: (2:21, after “I Wanna Watch You Bleed!”)

Gb|---------------------------------------------|
Db|---------------------3-4-5-------------------|
Ab|-5v----5v----3-4-5v--------3-4-5-0-5-0-3-2-0-|
Eb|----3v----3v---------------------------------|

(2:35,after “When Your High You Never, Never Wanna Be Down…”)
Gb|---------|
Db|---------|
Ab|---------| x3
Eb|-33333-1-|

Gb|-----------|
Db|-----5-5-5-|
Ab|-----------| x1
Eb|-5-5-------|

Solo 2: (02:43)

Gb|-----------------------------------|
Db|-----------------------------------|
Ab|-----4-5-----7-7-----4-5-----------| x2
Eb|-000-----000-----000-----000-3-3-3-|

Gb|-----------------------------------|
Db|-----------------------------------|
Ab|-----------------------------------| x3
Eb|-9-7-9-7-9-7-9-7-0-7-5-7-5-7-5-7-0-|

Gb|----------------------------------------------|
Db|----------------------------------------------|
Ab|----------------------------------------------| x1
Eb|-9-7-9-7-9-7-9-7-0-7-5-7-5-7-5-7-5--0-7-0-3-0-|

Gb|------------------|
Db|------------------|
Ab|--7--7--7---------|
Eb|00-00-00-0-4-5-6-7|

Gb|--------------------------------|
Db|------------------------9-7-----|
Ab|----------------------------9-7-|
Eb|-7-7-0-7-5-6-7-0-7-0-7----------|

Gb|-----------------------------|-------------|------------------------------------------|
Db|-----------------------------|-------------|---------------2-3-4-4-4-4--4-2---------9-|
Ab|-7-5---5-7-0-7-7-5-----------|-------------|--------------------------------4-0-2v-/--|
Eb|-----7-------------7-4-5-6-7-|-7-7-7-7-7-7-|-2-2-2-2-2-2-2----------------------------|

Breakdown: (03:25)

Gb|---------------------|
Db|---------------------|
Ab|---------------------|
Eb|-0-2-3-2-3-4-5-4-5-6-|

Gb|------------|
Db|------------|
Ab|777666555432| x10
Eb|------------|

Gb|---------------------|
Db|---------------------|
Ab|---------------------|
Eb|-2-1-2-3-5-4-5-6-0-8-|

Final Chorus: (03:51)

Gb|-----------------------|-----------------|
Db|-----------------------|-----------------|
Ab|---------------5-5-5-5-|-7-7-5-5---------| x3
Eb|-8-8-8-8-0-3-0---------|---------6-6-3-0-|

Outro: (04:15)

Gb|-----------------------|
Db|-----------------------|
Ab|---------------5-5-5-5-|
Eb|-8-8-8-8-0-3-0---------|

Gb|------------------------||
Db|------------------------||
Ab|-7-5----------------7---||
Eb|-----6-5-3-0-5-3-0--0---||

That’s it, the breakdown part probably isn’t 100% correct with the number of notes but 
not hard to figure out by listening.
Suggest correction
comments
print report bad tab
8 comments total. Showing first comments.
+2 reply
Metal_NZ_FTW 258 wrote on June 20 2010, 06:27 pm

oh yeah the timings i have for the song are based on the master track, sorry i didnt add that in

+1 reply
thewickerman696 10 wrote on June 23 2010, 01:49 am

nice tab man, pretty much perfect :)

+2 reply
Metal_NZ_FTW 258 wrote on June 25 2010, 06:29 pm

alright this part is wrong sorry guys
Gb|---------------------|
Db|---------------------|
Ab|---------------------|
Eb|-0-2-3-2-3-4-5-4-5-6-|

its actually:
Gb|--------------------------------|
Db|--------------------------------|
Ab|--------------------------------|
Eb|-000222333222333444555444555666-|

guest
You may want to rate the tab now too:
select rating
Please do not post tabs as comments. Select "correction" instead!