Oops, an error
Loading. Please wait.

You Could Be Mine Tab

version 1
version 1

Whole song

Interactive

91,121 views 39 this week
2 commentsread comments
1 2 3 4 5
x 12
add to favorites
×
Save as Personal and add changes to this tab that will be seen only by you. Learn more ›
×
You can save this tab as Personal to edit and correct it or add notes. All changes will be seen only by you. Learn more »
save as personal
new!
launch autoscroll
font size
0
reset
how to read this tab
guitar tuner
backing track
0:00
0:00
Autoscroll
slow
fast
+/-
esc
set tempo
stop
[Verse]
        F# 
I'm a cold heartbreaker 
Fit ta burn and I'll rip your heart in two 
        E                       F# B5  
An I'll leave you lyin' on the bed 
        F# 
I'll be out the door before ya wake 
It's nuthin' new ta you 
        E 
'Cause I think we've seen that movie, 
    F# B5  
too 

[Chorus]
                 A    B         F# 
(OH woh) 'Cause you could be mine 
          A     B        F#m 
But you're way out of line 
            A 
With your bitch slap rappin' 
           B 
And your cocaine tongue 
         F#m 
You get nuthin' done 
        A    B 
I said you could be mine 

[Instrumental]
F#    E  F#

[Verse]
Now holidays come and then they go 
It's nothin' new today 
Collect another memory 
When I come home late at night 
Don't ask me where I've been 
Just count your stars 
I'm home again 

[Chorus]
                 A    B         F# 
(OH woh) 'Cause you could be mine 
          A     B        F#m 
But you're way out of line 
            A 
With your bitch slap rappin' 
           B 
And your cocaine tongue 
         F#m 
You get nuthin' done 
        A    B 
I said you could be mine 

[Instrumental] (x6)
F#  E

[Verse]
G               F#m     G         A 
You've gone sketchin' too many times 
     G     F#m      G         A 
Ooh, Why don't ya give it a rest 
G F#m G             B A G 
  Why Must you find 
F#m 
Another reason to cry 

 [Solo]
e|------------------------------------------------------------------------------| 
B|-------------------------------9-----9-----9--------9--(9)p7---9--7-----------| 
G|-------------------------------9-----9-----9--------9--(9)p7---9--7-----------| 
D|------------------------(9)-9-----9---------------------------------9--7--9~~-| 
A|------------------------------------------------------------------------------| 
E|------------------------------------------------------------------------------| 

e|------------------------------------------------------------------------------| 
B|---7--9--9--9--7--9-----9--------------------7--------------------------------| 
G|---7--9--9--9--7--9--7--9----------7h9--9----7--9p7s6---7--6--7--6h7p6----6---| 
D|---------------------7--------------------7-----------------------------9-----| 
A|------------------------------------------------------------------------------| 
E|------------------------------------------------------------------------------| 

e|------------------------------------------------------------------------------| 
B|------------------------------------------------------------------------------| 
G|----6----------------------------------------------------------------------10-| 
D|9------9--9--7-----9---7------------------------7-----------------------9-----| 
A|----------------9----9---9--8--8---7----(7)p5---7--5--------------------------| 
E|----------------------------------------------7-------7--7--10--7---(7)s------| 

e|--10------7-------10---x--------10--9h10p9p7-----9-----7h9p7------10-------10-| 
B|--10~~~~~~--10p7-------x--10p7---------------10----10---------10-----8s12-----| 
G|------------------------------------------------------------------------------| 
D|------------------------------------------------------------------------------| 
A|------------------------------------------------------------------------------| 
E|------------------------------------------------------------------------------| 

e|----------12-----10--------14-------------17~~~-14--17------------------14----| 
B|--12--10------------12--10-----17--14------------------14--17---17~~~~~~---17-| 
G|-------------------------------------16---------------------------------------| 
D|------------------------------------------------------------------------------| 
A|------------------------------------------------------------------------------| 
E|------------------------------------------------------------------------------| 

e|------17--14-----------------14-------17-----17---14--17----17------17----17--| 
B|---14--------17p14--17~~~~~-----17p14----14--------------14-------------------| 
G|------------------------------------------------------------------------------| 
D|------------------------------------------------------------------------------| 
A|------------------------------------------------------------------------------| 
E|------------------------------------------------------------------------------| 

[Verse]
B 
While you're breakin' down my back n' 
     Db 
I been rackin' out my brain 
          D 
It don't matter how we make it 
                               D Db 
'Cause it always ends the same 
  B 
You can push it for more mileage 
          Db 
But your flaps r' wearin' thin 
           D 
And I could sleep on it 'til mornin' 
                            D Db 
But this nightmare never ends 
B 
Don't forget to call my lawyers 
        Db 
With ridiculous demands 
               D 
An you can take the pity so far 
                                D  Db 
But it's more than I can stand 
            B 
'Cause this couchtrip's gettin' older 
         Db 
Tell me how long has it been 
       D
'Cause 5 years is forever 
An you haven't grown up yet 

[Verse] 
You could be mine 
But you're way out of line 
With your bitch slap rappin' 
And your cocaine tongue 
You get nuthin' done 
I said you could be mine 
 A      B 
You should be 
 A      B       F# 
You could be mine 
 B5            F# 
You could be mine (7x) 
 B5          F# 
You could be mine 

Yeah! 

  1/2                      While you're breakin down my       back an' I been 
e|---------------------------------------------------------------------------| 
B|17------16-----------------------------------------------------------------| 
G|------------16--14------------------------14s16-------------16~~~~~~~~~~~~~| 
D|--------------------16p15p14--122--14--12----------------------------------| 
A|---------------------------------------------------------------------------| 
E|---------------------------------------------------------------------------| 

   matter how we maek it cause it always 
e|---------------------------------------------------------------------------| 
B|--7------------------------------------------------------------------------| 
G|--7------------------------------------------------------------------------| 
D|--7-----------------------------7(harmonic)--------------------------------| 
A|--5------------------------------------------------------------------------| 
E|---------------------------------------------------------------------------| 

  I     said    you                              could       be 
e|---------------------------------------------------------------------------| 
B|-------------------------10-------------------------10---------------------| 
G|9s11--11s14---11-----11------11----------------11-------11-----------------| 
D|---------------------------------9(full)p7---------------------------------| 
A|7s9---9s12----------------------------------9---------------------9--9-----| 
E|---------------------------------------------------------------------------| 

 you                               should  be         you 
e|---------------------------------------------------------------------------| 
B|--------------10------------------------------------------10---------------| 
G|--------11---------11---11----------------------------11------11------11---| 
D|-----------------------------9---------------------------------------------| 
A|9--9----------------------------9----------------------------------9------9| 
E|---------------------------------------------------------------------------| 

could              be                   mine 
e|-------14--16--14--16--14--------------------------------------------------| 
B|--11---14--16--14--16--14--------------------------------------------------| 
G|-----------------------------16----14--16~~~~~~----------------------------| 
D|---------------------------------------------------------------------------| 
A|---------------------------------------------------------------------------| 
E|---------------------------------------------------------------------------|  

(Here's another tab)

e|-----------------------------------------|-------------------------------| 
B|-----------------------------------------|-------------------------------| 
G|-----------------------------------------|-------------------------------| 
D|-----------------------------------------|-------------------------------| 
A|-----------------------------------------|-------------------------------| 
E|--12-12-12-12-12-12-12-12-9-9-9-9-9-9-7-7|7-7-7-7-7-7-7-7-5-5-4-4-3-3-3-3| 

  ¼ B     p                                 1/2    p 
e|------------------------------------------------------------------3-----------------| 
B|-4-----4---2------------2---------------2-----2-----0-------------3-----------------| 
G|-4-----4---2------------2---------------2-----2-----0-------------------------------| 
D|-------------------4----2------------------------------------2----------------------| 
A|------------------------------------------------------------------------------------| 
E|------------------------------------------------------------------------------------| 

e|-----3--| 
B|-----3--| 
G|--2-----| 
D|--------|   (x5) 
A|--------| 
E|--------| 

(Now we have about 4 measures of powerchords ect.) 
Listen to the song to see how the timing goes(That goes for this whole work) 
e|--------------------| 
B|--------------------| 
G|-----------7------9-| 
D|-----9-----9------9-| 
A|-----7-----7------7-| 
E|--------------------| 

(Then the main riff that is used through out the chorus and verses is this) 
e|--------------------------------------------------------------------------------| 
B|--------------------------------------------------------------------------------| 
G|---2--4--2--4--2---------------------------------2--4--2--4--2------------------| 
D|---2--4--2--4--2--4--2------------4--2--4--2--4--2--4--2--2--2--4--2------------| 
A|------------------4--2--4---------4--2--4--2--4-----------------4--2--4---------| 
E|------------------------2---------------------------------------------2---------| 

[Solo]: 
 You could be mineanother reason to cry               1/2    1/2 hold
e|-----------------------------------------------------------------------------| 
B|------------------------------9-----9-----9--------9--(9)p7---9--7-----------| 
G|------------------------------9-----9-----9--------9--(9)p7---9--7-----------| 
D|-----------------------(9)-9-----9---------------------------------9--7--9~~-| 
A|-----------------------------------------------------------------------------| 
E|-----------------------------------------------------------------------------| 

                        1/2 
e|-----------------------------------------------------------------------------| 
B|---7--9--9--9--7--9-----9--------------------7-------------------------------| 
G|---7--9--9--9--7--9--7--9----------7h9--9----7--9p7s6---7--6--7--6h7p6----6--| 
D|---------------------7--------------------7-----------------------------9----| 
A|-----------------------------------------------------------------------------| 
E|-----------------------------------------------------------------------------| 

                             1/2 1/2~~           1/2     1/2 2(1/2)       F~~ 
e|-----------------------------------------------------------------------------| 
B|-----------------------------------------------------------------------------| 
G|---6----------------------------------------------------------------------10-| 
D|-9----9--9--7-----9---7------------------------7-----------------------9-----| 
A|---------------9----9---9--8--8---7----(7)p5---7--5--------------------------| 
E|---------------------------------------------7-------7--7--10--7---(7)s------| 

                 1/2 
e|-10------7-------10---x--------10--9h10p9p7-----9-----7h9p7------10-------10-| 
B|-10~~~~~~--10p7-------x--10p7---------------10----10---------10-----8s12-----| 
G|-----------------------------------------------------------------------------| 
D|-----------------------------------------------------------------------------| 
A|-----------------------------------------------------------------------------| 
E|-----------------------------------------------------------------------------| 

         F(ull) 
e|--------12-----10--------14-------------17~~~-14--17------------------14-----| 
B|-12--10------------12--10-----17--14------------------14--17---17~~~~~~---17-| 
G|--------------------------------------16-------------------------------------| 
D|-----------------------------------------------------------------------------| 
A|-----------------------------------------------------------------------------| 
E|-----------------------------------------------------------------------------| 

                                                           F        F     F 
e|-----17--14-----------------14-------17-----17---14--17----17------17----17--| 
B|--14--------17p14--17~~~~~-----17p14----14--------------14-------------------| 
G|-----------------------------------------------------------------------------| 
D|-----------------------------------------------------------------------------| 
A|-----------------------------------------------------------------------------| 
E|-----------------------------------------------------------------------------| 

   ½B                      While you're breakin down my       back an' I been 
e|-----------------------------------------------------------------------------| 
B|-17------16------------------------------------------------------------------| 
G|-------------16--14------------------------14s16-------------16~~~~~~~~~~~~~-| 
D|---------------------16p15p14--122--14--12-----------------------------------| 
A|-----------------------------------------------------------------------------| 
E|-----------------------------------------------------------------------------| 

  matter how we maek it cause it always 
e|---------------------------------------------------------------------------| 
B|--7------------------------------------------------------------------------| 
G|--7------------------------------------------------------------------------| 
D|--7-----------------------------7(harmonic)--------------------------------| 
A|--5------------------------------------------------------------------------| 
E|---------------------------------------------------------------------------| 

   I     said    you                              could       be 
e|-----------------------------------------------------------------------------| 
B|---------------------------10-------------------------10---------------------| 
G|-9s11---11s14---11-----11------11----------------11-------11-----------------| 
D|-----------------------------------9(full)p7---------------------------------| 
A|-7s9----9s12----------------------------------9---------------------9--9-----| 
E|-----------------------------------------------------------------------------| 

 you                               should  be         you 
e|-----------------------------------------------------------------------------| 
B|---------------10------------------------------------------10----------------| 
G|---------11---------11---11----------------------------11------11------11----| 
D|------------------------------9----------------------------------------------| 
A|-9--9----------------------------9----------------------------------9------9-| 
E|-----------------------------------------------------------------------------| 

 could              be                   mine 
e|---------------------------------------------------------------------------| 
B|-------14--16--14--16--14--------------------------------------------------| 
G|--11---14--16--14--16--14--------------------------------------------------| 
D|-----------------------------16----14--16~~~~~~----------------------------| 
A|---------------------------------------------------------------------------| 
E|---------------------------------------------------------------------------|
Suggest correction
comments
print report bad tab
2 comments total.
+1 reply
life_247 30 Aug 10, 2004 08:00 PM

its in half step drop like every GnR song ive seen, also its mostly power chords

+1 reply
miskatsu 104 Oct 19, 2009 10:45 AM

Ain't me stupid, or chords these are? Shouldn't chords called be chords? Ain't me stupid, but this Unregistered guy even stupid more? ^^

guest
Wanna post a correction for this tab? Suggest correction