Oops, an error
Loading. Please wait.

Youre Crazy Bass

version 2
version 2

Whole song

Interactive

3,439 views 6 this week
2 commentsread comments
1 2 3 4 5
x 9
add to favorites
×
Save as Personal and add changes to this tab that will be seen only by you. Learn more ›
×
You can save this tab as Personal to edit and correct it or add notes. All changes will be seen only by you. Learn more »
save as personal
new!
launch autoscroll
font size
0
reset
guitar tuner
Autoscroll
slow
fast
+/-
esc
set tempo
stop
Author
You're Crazy by Guns N Roses

Intro
F#|------------------|--------------------|--------------------------|
C#|------------------|--------------------|o-------------------------|
G#|------------------|--------------------|o-------------------------|
D#|------------------|--3--------4--------|---3--5--5--3--5----3--5--|
                                                                      
|--------------------|-------------------------|----------------------|
|--------------------|-------------------------|---------------------o|
|-------5------------|-------------------------|---------------------o|
|----5---------------|--3--5--5--3--5----3--5--|----5--3----0---------|
                                                                       
|-------------------------|--------------------|-------------------------|
|-------------------------|--------------------|-------------------------|
|-------------------------|-------5------------|-------------------------|
|--3--5--5--3--5----3--5--|----5---------------|--3--5--5--3--5----3--5--|
                                                                    
|---------------------|-------------------------|--------------------|
|---------------------|-------------------------|--------------------|
|---------------------|-------------------------|-------5------------|
|----5--3----0--------|--3--5--5--3--5----3--5--|----5---------------|
                                                                            
|-------------------------|---------------------|
|-------------------------|---------------------|
|-------------------------|---------------------|
|--3--5--5--3--5----3--5--|----5--3----0--------|
 
Verse                                                                    
|--------------------------|--------------------|-------------------------|---------------------|
|o-------------------------|--------------------|-------------------------|---------------------|
|o-------------------------|-------5------------|-------------------------|---------------------|
|---3--5--5--3--5----3--5--|----5---------------|--3--5--5--3--5----3--5--|----5--3----0--------|
                                                                         
|-------------------------|--------------------|-------------------------|
|-------------------------|--------------------|-------------------------|
|-------------------------|-------5------------|-------------------------|
|--3--5--5--3--5----3--5--|----5---------------|--3--5--5--3--5----3--5--|
                                                                      
|---------------------|-----------------------|-----------------------|
|---------------------|-----------------------|-----------------------|
|---------------------|--5--5--5--5--5--------|--5--5--5--5--5--------|
|----5--3----0--------|-----------------------|-----------------------|
                                                                          
|-----------------------|------------------------|-------------------------|
|-----------------------|------------------------|-------------------------|
|--5--5--5--5--5--------|--5--5--5--5--5--3------|-------------------------|
|-----------------------|------------------------|--3--5--5--3--5----3--5--|
                                                                     
|--------------------|-------------------------|---------------------|
|--------------------|-------------------------|---------------------|
|-------5------------|-------------------------|---------------------|
|----5---------------|--3--5--5--3--5----3--5--|----5--3----0--------|
                                                                        
|-----------------------|-----------------------|-----------------------|
|-----------------------|-----------------------|-----------------------|
|--5--5--5--5--5--------|--5--5--5--5--5--------|--5--5--5--5--5--------|
|-----------------------|-----------------------|-----------------------|
                                                     
|--------------------------|--------------------------|
|--------------------------|--------------------------|
|--5--5--5--5--5--5--5--5--|--7--7--7--7--7--7--7--7--|
|--------------------------|--------------------------|
                                                                          
|--------------------------|--------------------------|--------------------|
|--------------------------|--------------------------|--------------------|
|--7--7--7--7--7--7--7--7--|--5--5--5--5--5--5--5--5--|--3-----------------|
|--------------------------|--------------------------|-----------3--------|
                                                                         
|-------------------------|--------------------|-------------------------|
|-------------------------|--------------------|-------------------------|
|-------------------------|-------5------------|-------------------------|
|--3--5--5--3--5----3--5--|----5---------------|--3--5--5--3--5----3--5--|
                                                                     
|---------------------|-------------------------|--------------------|
|---------------------|-------------------------|--------------------|
|---------------------|-------------------------|-------5------------|
|----5--3----0--------|--3--5--5--3--5----3--5--|----5---------------|
                                                                          
|-------------------------|----------------------|
|-------------------------|---------------------o|
|-------------------------|---------------------o|
|--3--5--5--3--5----3--5--|----5--3----0---------|

Chorus                                                                          
|-----------------------|-------------------------|----------------------|------------------------|
|-------5b--------------|-------------------------|----------------------|------------------------|
|--7---------7--6----5--|----------------------3--|-------------7--6--5--|---------------------3--|
|-----------------------|----3--3--x-4---5--5-----|------5---------------|----3--4--5----5--5-----|
                                                                        
|----------------------|-------------------------|----------------------|
|----------------------|----4--5--6--------------|----------------------|
|-------------7--6--5--|----------------------3--|-------------7--6--5--|
|------5---------------|-------------5--5--3-----|------5---------------|
                                                                
|-----------------------|-------------------|-------------------|
|-----------------------|-------------------|-------------------|
|----3----3----------3--|-------------7--6--|--5----------------|
|--------------5--3-----|------5------------|-------------------|
                                                               
|-------------------|--------------------|---------------------|
|--7/---------------|--12----------------|---------------------|
|-------------------|--------------------|---------------------|
|-------------------|--------------------|--------0--3----2----|

Bridge                                                                             
|--------------------------|------------------------|------------------------|
|o-------------------------|------------------------|------------------------|
|o----------------------7--|---------------------7--|---------------------7--|
|---0----0--0--0--0--0-----|------0--0--0--0--0-----|------0--0--0--0--0-----|
                                                                        
|---------------------|----------------------2--|---------------------2--|
|---------------------|-------------------------|------------------------|
|-----------3----2----|--0----0--0--0--0--0-----|------0--0--0--0--0-----|
|------5--------------|-------------------------|------------------------|
                                                                       
|---------------------2--|----------------------|
|------------------------|---------------------o|
|------0--0--0--0--0-----|---------------------o|
|------------------------|------0----3----2-----|
                                                          
|---------------------|----------------------|----------------------------------|
|---------------------|----------------------|----------------------------------|
|---------------------|----------------------|----------------------------------|
|--5--------3------3--|--2------2--1------1--|--0-0-0-0-0-0-0-0-0-0-0-0-0-0-0-0-|
                                                             
|----------------------------------|
|----------------------------------|
|--7-7-7-------7-7-7-------7-7-----|
|--------0-0-0-------0-0-0-----0-0-|
   
Guitar Solo                                                                  
|-------------------------|--------------------|-------------------------|---------------------|
|-------------------------|--------------------|-------------------------|---------------------|
|--0--2--2--0--2----0--2--|----0---------------|--0--2--2--0--2----0--2--|----2--0-------------|
|-------------------------|-------0------------|-------------------------|------------2--------|
                                                                         
|-------------------------|--------------------|-------------------------|
|-------------------------|--------------------|-------------------------|
|--0--2--2--0--2----0--2--|----0---------------|--0--2--2--0--2----0--2--|
|-------------------------|-------0------------|-------------------------|
                                                                    
|---------------------|-------------------------|--------------------|
|---------------------|-------------------------|--------------------|
|----2--0-------------|--0--2--2--0--2----0--2--|----0---------------|
|------------2--------|-------------------------|-------0------------|
                                                                          
|-------------------------|---------------------|-------------------------|
|-------------------------|---------------------|-------------------------|
|--0--2--2--0--2----0--2--|----2--0-------------|--0--2--2--0--2----0--2--|
|-------------------------|------------2--------|-------------------------|
                                                                    
|--------------------|-------------------------|---------------------|
|--------------------|-------------------------|---------------------|
|----0---------------|--0--2--2--0--2----0--2--|----2--0-------------|
|-------0------------|-------------------------|------------2--------|
  
Verse                                                                     
|-------------------------|--------------------|-------------------------|
|-------------------------|--------------------|-------------------------|
|-------------------------|-------5------------|-------------------------|
|--3--5--5--3--5----3--5--|----5---------------|--3--5--5--3--5----3--5--|
                                                                    
|---------------------|-------------------------|--------------------|
|---------------------|-------------------------|--------------------|
|---------------------|-------------------------|-------5------------|
|----5--3----0--------|--3--5--5--3--5----3--5--|----5---------------|
                                                                        
|-------------------------|---------------------|-----------------------|
|-------------------------|---------------------|-----------------------|
|-------------------------|---------------------|--5--5--5--5--5--------|
|--3--5--5--3--5----3--5--|----5--3----0--------|-----------------------|
                                                                         
|-----------------------|-----------------------|------------------------|
|-----------------------|-----------------------|------------------------|
|--5--5--5--5--5--------|--5--5--5--5--5--------|--5--5--5--5--5--3------|
|-----------------------|-----------------------|------------------------|
                                                                        
|-------------------------|--------------------|-------------------------|
|-------------------------|--------------------|-------------------------|
|-------------------------|-------5------------|-------------------------|
|--3--5--5--3--5----3--5--|----5---------------|--3--5--5--3--5----3--5--|
                                                                     
|---------------------|-----------------------|-----------------------|
|---------------------|-----------------------|-----------------------|
|---------------------|--5--5--5--5--5--------|--5--5--5--5--5--------|
|----5--3----0--------|-----------------------|-----------------------|
                                                                           
|-----------------------|--------------------------|-----------------------|
|-----------------------|--------------------------|-------5b--------------|
|--5--5--5--5--5--------|--5--5--5--5--5--5--5--5--|--7---------7--6----5--|
|-----------------------|--------------------------|-----------------------|
                                                                         
|-------------------------|----------------------|------------------------|
|-------------------------|----------------------|------------------------|
|----------------------3--|-------------7--6--5--|---------------------3--|
|----3--3--x-4---5--5-----|------5---------------|----3--4--5----5--5-----|
                                                                       
|----------------------|-------------------------|----------------------|
|----------------------|----4--5--6--------------|----------------------|
|-------------7--6--5--|----------------------3--|-------------7--6--5--|
|------5---------------|-------------5--5--3-----|------5---------------|
                                                                       
|-----------------------|----------------------|------------------------|
|-----------------------|----------------------|------------------------|
|----3----3----------3--|-------------7--6--5--|---------------------3--|
|--------------5--3-----|------5---------------|----3--4--5----5--5-----|
                                                                       
|----------------------|-------------------------|----------------------|
|----------------------|----4--5--6--------------|----------------------|
|-------------7--6--5--|----------------------3--|-------------7--6--5--|
|------5---------------|-------------5--5--3-----|------5---------------|
                                                                         
|-----------------------|----------------------|-------------------------|
|-----------------------|----------------------|----4--5--6--------------|
|----3----3----------3--|-------------7--6--5--|----------------------3--|
|--------------5--3-----|------5---------------|-------------5--5--3-----|
                                                              
|----------------------|--------------7--7--|--------------7--7--|
|----------------------|--------------------|--------------------|
|-------------7--6--5--|--------------------|--------------------|
|------5---------------|--------------------|--------------------|
                                                              
|-----------------|-----------------|-------------|
|-----------------|-----------------|-------------|
|-----------------|--3--------------|-------------|
|--------5--5-3---|-------5---------|-------------|
Suggest correction
comments
print report bad tab
2 comments total.
0 reply
MisterMushroom 303 Mar 24, 2013 05:56 AM

Tuning is correct, but you've called it "Drop D". It's actually half step tuning. Otherwise, great tab!

0 reply
Slayer821 10 Apr 20, 2013 02:03 PM

Yeah MisterMushroom is correct.Its standard turning just half step down

guest
You may want to rate the tab now too:
select rating
Wanna post a correction for this tab? Suggest correction