Oops, an error
Loading. Please wait.

I Vow To Thee My Country Bass Tab

version 1
version 1

Whole song

  • This is transcribed directly from the score by Gustav Holst.

Interactive

7 views 3 this week
no commentswrite comment
1 2 3 4 5
3 more votes to show rating
add to favorites
launch autoscroll
font size
0
reset
guitar tuner
Autoscroll
slow
fast
+/-
esc
set tempo
stop
Help us to improve Ultimate-Guitar.com Take our survey!
×
Author
Difficulty
intermediate
About this tab version
This is transcribed directly from the score by Gustav Holst. Was this info helpful? Yes No
[Intro]
G|-----------------------------------|
D|-------0-----0-2-0-----------------|
A|---0-2---4-0-------4--2-4-2-0------|
E|-2----------------------------2~---|

[Section A]
G|-----------------------------------|
D|-------0-----0-2-4-4-4-2-0-2--0----|
A|---0-2---4-0-----------------------|
E|-2---------------------------------|

[Section B]
G|-2---------------------------------|
D|---4-2--2-0-4-2--------------------|
A|---------------0-------------------|
E|-----------------------------------|

[Section C]
G|-2----------2-4~--4-6-7-6-4-2-7----|
D|---4-2--2-4---------------------4--|
A|-----------------------------------|
E|-----------------------------------|

[Section D]
G|---------2---2-4-7-6-2-7-9-7-------|
D|-2-0-2-4---4-----------------------|
A|-----------------------------------|
E|-----------------------------------|

[Section E]      
G|6-4-6-4-2--------------------------|
D|----------4~-----------------------|
A|-----------------------------------|
E|-----------------------------------|

[Outro] 
G|--2-4-7-6-2-7-9-11-11-|-11-9-7-9-7~|
D|-4--------------------|------------|
A|----------------------|------------|
E|----------------------|------------|


************************************

| ~   Vibrato

************************************
Suggest correction
Give kudos to tab author, rate the tab!
1 2 3 4 5
comments
print report bad tab
guest
You may want to rate the tab now too:
select rating
Wanna post a correction for this tab? Suggest correction